Oops, an error
Loading. Please wait.

Tesselation Tab

2,239 views 66 this week
2 commentsread comments
1 2 3 4 5
x 5
add to favorites
launch autoscroll
font size
0
reset
how to read this tab
guitar tuner
×
Best way to learn
"Tesselation"
Autoscroll
slow
fast
+/-
esc
set tempo
stop
Author
Difficulty
  follow
intermediate
About this tab version
Hopefully this is all right. Chords for the verse have been taken from a live version on youtube. Was this info helpful? Yes No
[Intro] x1

Listen to Song for timing. 
In brackets is the minor variation that is played during the riff following the first chorus.

e|------------------------------------------------------------------------------|
B|--15b17-pb17br15-13--15--13-15-13-15b17br15-13-------------13-15--15h16p15/13-|
G|-----------------------------------------------14-----12-14-------------------|
D|------------------------------------------------------------------------------|
A|------------------------------------------------------------------------------|
E|------------------------------------------------------------------------------|

e|----------------(15)-------------------------------------------------------|
B|-15-15b17--pb17------17br16--(13h15)b17 pr17b15--13-15-13------------------|
G|---------------------------------------------------------------------------|
D|---------------------------------------------------------------------------|
A|---------------------------------------------------------------------------|   
E|---------------------------------------------------------------------------|


[Verse]. x1

Chords as played live. These chords are also used over the intro. Arpeggiate them a little if you feel fancy. 

   Fmaj9   E7(#9)   Am7     Bb13    Fmaj9   A#maj7sus4b5     E7     F#dim7//D#dim7 
e|-------|-------|----5---|-------|-------|--------------|--------|----------------------|
B|---8---|---8---|----5---|---8---|---8---|----5---------|----9---|---10---7--------------|
G|---9---|---7---|----5---|---7---|---9---|----8---------|----7---|---8----5--------------|
D|---7---|---6---|----5---|---6---|---7---|----7---------|----9---|---10---7--------------|
A|---8---|---7---|----7---|-------|---8---|--------------|----7---|---9----6--------------|
E|-------|-------|----5---|---6---|-------|----6---------|--------|----------------------|


[Chorus]


FIRST CHORUS:
e|----5--5--|-4---4----|----3--3---|--2--2----|---1---1--|-0---0----|-------------------|
B|-----5--5-|--5----5--|------5--5-|---3---3--|----3---3-|--2----2--|---2---1-------1---|
G|-6----6---|---6----6-|--6----6---|----4---4-|-4---4----|---2----2-|-----------4-------|
D|----------|----------|-----------|----------|----------|----------|-------------------|
A|----------|----------|-----------|----------|----------|----------|-------------------|   x1
E|----------|----------|-----------|----------|----------|----------|-------------------|


SECOND CHORUS: 
e|----5--5--|-4---4----|----3--3---|--2--2----|---1---1--|-0---0----|-------------------|
B|-----5--5-|--5----5--|------5--5-|---3---3--|----3---3-|--2----2--|---2---1-------1---|
G|-6----6---|---6----6-|--6----6---|----4---4-|-4---4----|---2----2-|-----------4-------|
D|----------|----------|-----------|----------|----------|----------|-------------------|
A|----------|----------|-----------|----------|----------|----------|-------------------|   x1
E|----------|----------|-----------|----------|----------|----------|-------------------|


e|----5--7p5-|-4---4-7p5-|----3---7p5-|--2--2-5p2-|---1---5p1-|-0---0----|-------------------|
B|-----5-----|--5--------|------5-----|---3-------|----3------|--2----2--|---2---1-------1---|
G|-6----6----|---6-------|--6----6----|----4------|-4---4-----|---2----2-|-----------4-------|
D|-----------|-----------|------------|-----------|-----------|----------|-------------------| x1
A|-----------|-----------|------------|-----------|-----------|----------|-------------------|
E|-----------|-----------|------------|-----------|-----------|----------|-------------------|

[Outro]

Chords for the outro/solo are the same as the verse and played with a wah effect.

   Fmaj9   E7(#9)   Am7     Bb13    Fmaj9   A#maj7sus4b5     E7     F#dim7//D#dim7 
e|-------|-------|----5---|-------|-------|--------------|--------|----------------------|
B|---8---|---8---|----5---|---8---|---8---|----5---------|----9---|---10---7--------------|
G|---9---|---7---|----5---|---7---|---9---|----8---------|----7---|---8----5--------------|
D|---7---|---6---|----5---|---6---|---7---|----7---------|----9---|---10---7--------------|. x2
A|---8---|---7---|----7---|-------|---8---|--------------|----7---|---9----6--------------|
E|-------|-------|----5---|---6---|-------|----6---------|--------|----------------------|



[Solo]
Probably about 95% correct I'd suggest, think the 15-17-18-17-15 lick played BELOW isnt quite spot on 
but it does the trick and apart from that its pretty well good.

e|--------------------------------------15-13---------------------------15--17-18-17-15----------|
B|------------12-13-12-10---------------------13-15-15b17-17br15(p13)-------------------17-15----|
G|-------9-12-------------12-10-12-14------------------------------------------------------------|
D|--9-10-----------------------------------------------------------------------------------------|
A|-----------------------------------------------------------------------------------------------|
E|-----------------------------------------------------------------------------------------------|

e|-----12---12--11--10-------11-10/----------------------------10------------12-11-10----10-11-10-8--10--10p8|
B|-----------------------------------------------13-----------------------------------13---------------------|
G|--13----13----12--11------------------------9--------------9------------9----------------------------------|
D|---------------------------------------9-10-----------9-10---------9-10------------------------------------|
A|-----------------------------------------------------------------------------------------------------------|
E|-----------------------------------------------------------------------------------------------------------|


***********************************

| \   Slide down
| h   Hummer-on
| p   Pull-off
| b   Bend
| pb  Pre-bend
| br  Bend release
| ()  Ghost note/Variation

**********************************
Suggest correction
comments
print report bad tab
2 comments total.
-2 reply
cal.mccrimmon 10 Jan 08, 2017 07:59 AM

How the fuck do I read this shit?

0 reply
alan_lf13 10 Mar 18, 2017 06:04 PM

Thanks a lot!
At the end of chorus you can play E Esus4 Esus2 E

guest
You may want to rate the tab now too:
select rating
Wanna post a correction for this tab? Suggest correction