Oops, an error
Loading. Please wait.

Windowpane bass

892 views 57 this week
3 commentsread comments
1 2 3 4 5
x 4
add to favorites
×
Save as Personal and add changes to this tab that will be seen only by you. Learn more ›
×
You can save this tab as Personal to edit and correct it or add notes. All changes will be seen only by you. Learn more »
launch autoscroll
font size
0
reset
guitar tuner
edit
Autoscroll
slow
fast
+/-
esc
set tempo
stop
About this tab version
This Tab is based on the studio version of windowpane available on the album ''Timeline''. Listen carefully to the timing of the song, for notes that are played longer are not tabbed differently from the regular ones. One more thing to note is that the transitions for example Intro to Verse or Solo to Bridge do not have a break between them, the notes are played continously. Was this info helpful? Yes No
Artist: Mild High Club
Song: Windowpane
Album: Timeline
Bassist: Alex Brettin 
Tuning: Standard(EADG)

[Intro]
G|-------------------------------------------------------------------------------------|
D|---------------8-8---8-8-----------------6-6---6-6-----------------------------------|
A|-8---8---8---------8-----8-6---6---6---------6-----6-4---4---5-----5-3---3---3---3---|
E|---8---8---8-6---------------6---6---6-4---------------4---4---5-3-----3---3---3---3-|

[Verse]
G|-------------------------------------------------------------------------------------|
D|-5-5---5-5---5---5---5-5---------5-5-----5-5-------------------------------------8-8-|
A|-----5-----5---5---5-----5-4-3-3-----3-3-----5-8-8---8-8---8---8----8-6--------------|
E|---------------------------------------------------8-----8---8----8-----8-7-6--6-----|

G|-------------------------------------------------------------------------------------|
D|-8-6-5-------------------------------------------------7-5-4-------------------------|
A|-------8-6~--6-6---6---6-6---6-6---6-8-7-7---7-7-------------7-5-5---5-5---5---5-5---|
E|-----------6-----6---6-----6-----6---------7-----7-5-5-------------5-----5---5-------|

G|-------------------------------------------------------------------------------------|
D|-------------------------------6-6-4-------------------------------------------------|
A|---5-5---5-7-6-6---6---6-------------6-----------------------------------------------|
E|-5-----5---------6---6---6-4-4-------------------------------------------------------|

[Solo]
G|-------------------------------------------------------------------------------------|
D|---------------------------------4---4-4---4-4---4-4---------------------------------|
A|-4-4---4-4-6-7-4---4-4---4-5-6-7---4-----4-----4-----5-4-2---2-2-4-5-2---2-2---------|
E|-----4-----------4-----4-----------------------------------2-----------2-------------|

G|-------------------------------------------------------------------------------------|
D|-------------------------------7-6-4-----------8-6-5-----------6-5-4-----------------|
A|---2-4-5-6-7-----7---4-7-4-----------7-5-4-----------8-6-4-----------7-6-4-----------|
E|-2-----------0-0---7-------5-5-------------6-6-------------8-4-----------------------|

[Bridge]
G|-------------------------------------------------------------------------------------|
D|-----------------------8-8---8-8---8-8---8-------------------------------------------|
A|-8---8-8---8-8---8---------8-----8-----8---8-6-6---6-6---6---6---6---6---6-----------|
E|---8-----8-----8---8-6---------------------------6-----6---6---6---6---6---6-4-------|

G|-------------------------------------------------------------------------------------|
D|---6-6---6-6---6-6---------------------------------------------------------5-3-2-----|
A|-------6-----6-----9-8-6-4-4---4-4---4---4-4---4-4---4-6-5-5---5---5-------------5-3-|
E|-4---------------------------4-----4---4-----4-----4---------5---5---5-3-3-----------|

G|-------------------------------------------------------------------------------------|
D|-----------------------------4/5-3-------3-5-5-3-5-3-5-3-5-3-5-3-5-7-----------------|
A|---3-3---3---3-3---3-3---3---------5-3-5-----------------------------3-3---3---------|
E|-3-----3---3-----3-----3---3---------------------------------------------3-----------|

G|-----------------3/5-3---------------------------------------------------------------|
D|---------2/3-5/7-------7-5-3---------------------------------------------------------|
A|-3-3-3/5-----------------------------------------------------------------------------|
E|-------------------------------------------------------------------------------------|

[Verse & Outro]
G|-------------------------------------------------------------------------------------|
D|-3---3-3-5-6-3---3-3---3-5-6-8-6-5-6-5-3-5-3-1-3-1-0-3-------------------------------|
A|---3-----------3-----3---------------------------------6-6---6-6---6---6-6---6-6-----|
E|-----------------------------------------------------------6-----6---6-----6---------|

G|-------------------------------------------------------------------------------------|
D|-------------------------7-5-4-------------------------------------------------------|
A|---6-8-7-7---7---7-------------7-5-5---5-5---5---5-5---5-5---5-7-6-6---6---6---------|
E|-6---------7---7---7-5-5-------------5-----5---5-----5-----5---------6---6---6-4-----|

G|-------------------------------------------------------------------------------------|
D|---6-6-4-------------------------------------------4---4---4-------------------------|
A|---------6-4-4---4---4-6-7-4---4-4---4-6-7-8-9-4-4---4---4---4-2---2-2-4-5-2---------|
E|-4-------------4---4---------4-----4-----------------------------2-------------------|

G|-------------------------------------------------------------------------------------|
D|-------------------------------------7-6-4-----------8-6-5-----------6-5-4-----------|
A|---2-2---2-4-5-6-7-----7---4-7-4-----------7-5-4-----------8-6-4---------------------|
E|-2-----2-----------0-0---7-------5-5-------------6-6-------------8-4-----------------|


************************************

| ~  Vibrato
| /  Slide up

************************************

            
            
Suggest correction
Creating personal tab
Creating personal tab
You can edit any tab online and save it as your Personal.

You can edit, replace or remove any tab part or add personal notes – all changes will be seen only by you.

Personal tabs can be accessed anytime from any device, even offline.
Learn more »
comments
print report bad tab
3 comments total.
+2 reply
pedrobraganca 35 May 30, 2017 09:37 AM

porreta, baixo bem orgasmico

+1 reply
GucciAmen 10 Jul 18, 2017 06:39 PM

perfect tab man thanks so much!

+1 reply
morpbrandon 10 Aug 31, 2017 11:46 PM

Great tab, man!

guest
You may want to rate the tab now too:
select rating
Wanna post a correction for this tab? Suggest correction