Oops, an error
Loading. Please wait.

No Hay Secretos En El Amor Tab

51 views 1 this week
no commentswrite comment
1 2 3 4 5
3 more votes to show rating
add to favorites
launch autoscroll
font size
0
reset
how to read this tab
guitar tuner
×
Best way to learn
"No Hay Secretos En El Amor"
Autoscroll
slow
fast
+/-
esc
set tempo
stop
Hola amigos: nuevamente por aquí les envió este tema es muy bonito
se los recomiendo, la transcripción esta súper para primera
guitarra y la segunda se guía solo por los acordes.
(¡): este signo lo puse para indicar que  el número que esta
debajo NO se golpea con la mano derecha; sino que por el
contrario debes solo pisar   con la mano izquierda  como
golpeando  y soltar  inmediatamente (muy rápido) hazlo
con mucho estilo y sonara chebre aquí les va.:
AH por cierto lleva capo en el segundo traste


INTRO:

E|--------------|
A|-0------------|
D|--2-----------|
G|---2-----2----|
B|----1-3-1-----|
E|--------------| X.2

E|----------------------------|
A|-0--------------------------|
D|--2-------2-------2---------|
G|---2-----2-2-----2-2-----2--|
B|----1-3-1---1-3-1---1-3-1---|
E|----------------------------| X.2

               C                   G         Am
E|-----------------------------|---------|---------|
A|-----------------------------|---------|---------|
D|-------------5-------5-------|---------|---------|
G|----------¡------¡-5-----¡-5-|--0----¡-|---2-----|
B|-5---¡-555-3--33-5----33-5---|----0--1-|---------|
E|---3-5-----------------------|---------|---------| X.4

                     Am
E|--------------------------------------------|
A|--------3-0-2-3-----------------------------|
D|-------2-------0-2--------------------------|
G|--2-1-2-----------0-2-----------------------|
B|---------------------0-1-3-------¡----------|
E|---------------------------0-3-3-5-5-5-5-5--|

CANTE:

   Am         C
Palomita / mensajera
      F           C
anda dile a mi / amada
     Am            C
Que sin ella / yo me muero
      F              Em
y desfallece mi / almaaa?..
    Am          C
Palomita / tu que sabes
       F               C
tantas historias de / amor
      Am            C
Dime cual es / el secreto
         F              Em
para que vuelva mi / floo..or.


           C
No hay secretos en el amor
        C            G    Am
solo hay que ser / since/ros
           C
Ya no lores aujichallay
        C           G     Am
Por que diablos / no ven/drá.  BIS

INTERMEDIO:
               C                   G         Am
E|-----------------------------|---------|---------|
A|-----------------------------|---------|---------|
D|-------------5-------5-------|---------|---------|
G|----------¡------¡-5-----¡-5-|--0----¡-|---2-----|
B|-5---¡-555-3--33-5----33-5---|----0--1-|---------|
E|---3-5-----------------------|---------|---------| X.2

                     Am
E|--------------------------------------------|
A|--------3-0-2-3-----------------------------|
D|-------2-------0-2--------------------------|
G|--2-1-2-----------0-2-----------------------|
B|---------------------0-1-3-------¡----------|
E|---------------------------0-3-3-5-5-5-5-5--|

       Am                  C
E|--0----------|------------------------|
A|---0-0-3-0-3-|---¡----------3----¡----|
D|-------------|-0-2-2--¡--2-2-0-0-2-2--|
G|-------------|------0-2---------------|
B|-------------|------------------------|
E|-------------|------------------------| X.2


      F            C            G        Am     C
E|-----------|-----------|-------------|-----|------|
A|-----------|---¡--5-3--|-3-5-5-3-0-3-|--0--|--3---|
D|----¡--5-2-|-2-5-2-----|-------------|-----|------|
G|--2-5-2----|-----------|-------------|-----|------|
B|-----------|-----------|-------------|-----|------|
E|-----------|-----------|-------------|-----|------|


       F              C            G           Am
E|--------------|-----------|---------------|------|
A|--------------|------5-5--|-3-3-5-5-3-0-3-|-0-0--|
D|----¡--5-5-2--|--5-2--2---|---------------|------|
G|--2-5-2-2-----|-----------|---------------|------|
B|--------------|-----------|---------------|------|
E|--------------|-----------|---------------|------|

                     Am
E|--------------------------------------------|
A|--------3-0-2-3-----------------------------|
D|-------2-------0-2--------------------------|
G|--2-1-2-----------0-2-----------------------|
B|---------------------0-1-3-------¡----------|
E|---------------------------0-3-3-5-5-5-5-5--|


*******************************************************
REPETIR SOLO  LA PARTE DEL CANTE
Y CULMINA CON lo siguiente:
********************************************************

                 C                   G      Am
E|-------------3--------3--------|-3---¡--|-----|
A|-----------¡------¡-3------¡-3-|---2-3--|--0--|
D|---¡-2-2-2-0--0-0-2----0-0-2---|--------|-----|
G|-0-2---------------------------|--------|-----|
B|-------------------------------|--------|-----|
E|-------------------------------|--------|-----| x.2

               C                   G         Am
E|-----------------------------|---------|---------|
A|-----------------------------|---------|---------|
D|-------------5-------5-------|---------|---------|
G|----------¡------¡-5-----¡-5-|--0----¡-|---2-----|
B|-5---¡-555-3--33-5----33-5---|----0--1-|---------|
E|---3-5-----------------------|---------|---------| X.4

                    C                       G      Am
E|--------------------------------------|-------|-------|
A|--------------------------------------|-------|-------|
D|--------------------------------------|-------|-------|
G|-------------12----------12-----------|-------|-------|
B|-----¡-----14---------¡12---------¡-12|-8---¡-|--10---|
E|-12-15-12-12----10-10-12---10-10-12---|---7-8-|-------| x.4

                     Am
E|----------------------------------------------|
A|----------------------------------------------|
D|----------10-7-9-10---------------------------|
G|---------9---------7-9------------------------|
B|--10-9-10-------------7-9-----------10-10-10--|
E|-------------------------7-8-10-8-7-----------|

****************************************************************
SALUDOS PARA TODOS Y DISFRUTEN DE LA MUSICA QUE
LA MEXIMA EXPRESION DEL ALMA; SURTE .
Suggest correction
Give kudos to tab author, rate the tab!
1 2 3 4 5
comments
print report bad tab
guest
You may want to rate the tab now too:
select rating
Wanna post a correction for this tab? Suggest correction