Oops, an error
Loading. Please wait.

All Blues bass

version 1
version 1

Whole song

  • Double bass arranged for electric bass.

Interactive

391 views 15 this week
no commentswrite comment
1 2 3 4 5
2 more votes to show rating
add to favorites
×
Save as Personal and add changes to this tab that will be seen only by you. Learn more ›
×
You can save this tab as Personal to edit and correct it or add notes. All changes will be seen only by you. Learn more »
launch autoscroll
font size
0
reset
guitar tuner
edit
Autoscroll
slow
fast
+/-
esc
set tempo
stop
Author
Difficulty
About this tab version
Double bass arranged for electric bass. Was this info helpful? Yes No
                                        All Blues
                                       Miles Davis
 
Bass                                                                           Miles Davis

As played by Paul Chambers


[Vamp 1]

G|---------------------|---------------------|---------------------|---------------------|
D|-----0-2-0-3---0-2-0-|-----0-2-0-3---0-2-0-|-----0-2-0-3---0-2-0-|-----0-2-0-3---0-2-0-|
A|---------------------|---------------------|---------------------|---------------------| x2
E|-3-------------------|-3-------------------|-3-------------------|-3-------------------|
   Q.  E E E Q.  E E E   Q.  E E E Q   E E E   Q.  E E E Q.  E E E   Q.  E E E Q.  E E E

[Chorus 1]

G|---------------------|---------------------|---------------------|---------------------|
D|-----0-2-0-3---0-2-0-|-----0-2-0-3---0-2-0-|-----0-2-0-3---0-2-0-|-----0-2-0-3---0-2-0-|
A|---------------------|---------------------|---------------------|---------------------| x2
E|-3-------------------|-3-------------------|-3-------------------|-3-------------------|
   Q.  E E E Q.  E E E   Q.  E E E Q   E E E   Q.  E E E Q.  E E E   Q.  E E E Q.  E E E

G|---------------------|---------------------|---------------------|---------------------|
D|-----------7-----7-8-|---------7-----------|-----0-2-0-3---0-2-0-|-----0-2-0-3---0-2-0-|
A|-5-------------------|-6---------5---------|---------------------|---------------------|
E|---------------------|---------------------|-3-------------------|-3-------------------|
   H.        H   E S S   Q.  E E E H.          Q.  E E E Q.  E E E   Q.  E E E Q.  E E E

[Vamp 2]

G|---------------------|---------------------|---------------------|---------------------|
D|-----0-2-0-3---0-2-0-|-----0-2-0-3---0-2-0-|-----0-2-0-3---0-2-0-|-----0-2-0-3---0-2-0-|
A|---------------------|---------------------|---------------------|---------------------|
E|-3-------------------|-3-------------------|-3-------------------|-3-------------------|
   Q.  E E E Q.  E E E   Q.  E E E Q   E E E   Q.  E E E Q.  E E E   Q.  E E E Q.  E E E

[Chorus 2]

G|---------------------|---------------------|---------------------|---------------------|
D|-----0-2-0-3---0-2-0-|-----0-2-0-3---0-2-0-|-----0-2-0-3---0-2-0-|-----0-2-0-3---0-2-0-|
A|---------------------|---------------------|---------------------|---------------------| x2
E|-3-------------------|-3-------------------|-3-------------------|-3-------------------|
   Q.  E E E Q.  E E E   Q.  E E E Q   E E E   Q.  E E E Q.  E E E   Q.  E E E Q.  E E E

G|---------7-5---------|---------------------|---------------------|---------------------|
D|-------------7-------|-------8-------------|-----0-2-0-3---0-2-0-|-----0-2-0-3---0-2-0-|
A|-5---------------5---|-6-------6---5-------|---------------------|---------------------|
E|---------------------|---------------------|-3-------------------|-3-------------------|
   H.      E E Q   Q     Q.    E E E H.        Q.  E E E Q.  E E E   Q.  E E E Q.  E E E

[Vamp 3]

G|---------------------|---------------------|---------------------|---------------------|
D|-----0-2-0-3---0-2-0-|-----0-2-0-3---0-2-0-|-----0-2-0-3---0-2-0-|-----0-2-0-3---0-2-0-|
A|---------------------|---------------------|---------------------|---------------------|
E|-3-------------------|-3-------------------|-3-------------------|-3-------------------|
   Q.  E E E Q.  E E E   Q.  E E E Q   E E E   Q.  E E E Q.  E E E   Q.  E E E Q.  E E E

[Trumpet Solo] (4 Times)

G|---------------------|---------------------|---------------------|---------------------|
D|-----0-2-0-3---0-2-0-|-----0-2-0-3---0-2-0-|-----0-2-0-3---0-2-0-|-----0-2-0-3---0-2-0-|
A|---------------------|---------------------|---------------------|---------------------| x2
E|-3-------------------|-3-------------------|-3-------------------|-3-------------------|
   Q.  E E E Q.  E E E   Q.  E E E Q   E E E   Q.  E E E Q.  E E E   Q.  E E E Q.  E E E

G|---------------------|---------------------|---------------------|---------------------|
D|---------------------|---------7-----------|-----0-2-0-3---0-2-0-|-----0-2-0-3---0-2-0-|
A|-5---------0-------5-|-6---------5---------|---------------------|---------------------|
E|---------------------|---------------------|-3-------------------|-3-------------------|
   H.        H     E E   Q.  E E E H.          Q.  E E E Q.  E E E   Q.  E E E Q.  E E E

[Vamp 4]

G|---------------------|---------------------|---------------------|---------------------|
D|-----0-2-0-3---0-2-0-|-----0-2-0-3---0-2-0-|-----0-2-0-3---0-2-0-|-----0-2-0-3---0-2-0-|
A|---------------------|---------------------|---------------------|---------------------|
E|-3-------------------|-3-------------------|-3-------------------|-3-------------------|
   Q.  E E E Q.  E E E   Q.  E E E Q   E E E   Q.  E E E Q.  E E E   Q.  E E E Q.  E E E

[Alto Solo]

G|---------------------|---------------------|---------------------|---------------------|
D|-----0-2-0-3---0-2-0-|-----0-2-0-3---0-2-0-|-----0-2-0-3---0-2-0-|-----0-2-0-3---0-2-0-|
A|---------------------|---------------------|---------------------|---------------------| x2
E|-3-------------------|-3-------------------|-3-------------------|-3-------------------|
   Q.  E E E Q.  E E E   Q.  E E E Q   E E E   Q.  E E E Q.  E E E   Q.  E E E Q.  E E E

G|-----------7---------|---------------------|---------------------|---------------------|
D|---------------------|-----8---------------|-----0-2-0-3---0-2-0-|-----0-2-0-3---0-2-0-|
A|-5-------------5-----|-6-----6---5---------|---------------------|---------------------|
E|---------------------|---------------------|-3-------------------|-3-------------------|
   H.        Q   H       Q.  E Q   H.          Q.  E E E Q.  E E E   Q.  E E E Q.  E E E

G|---------------------|---------------------|---------------------|---------------------|
D|-----0-2-0-3---0-2-0-|-----0-2-0-3---0-2-0-|-----0-2-0-3---0-2-0-|-----0-2-0-3---0-2-0-|
A|---------------------|---------------------|---------------------|---------------------| x2
E|-3-------------------|-3-------------------|-3-------------------|-3-------------------|
   Q.  E E E Q.  E E E   Q.  E E E Q   E E E   Q.  E E E Q.  E E E   Q.  E E E Q.  E E E

G|---------------------|---------------------|---------------------|---------------------|
D|---------------------|-----8---------------|-----0-2-0-3---0-2-0-|-----0-2-0-3---0-2-0-|
A|-5-------------------|-6-----6---5---------|---------------------|---------------------|
E|---------------------|---------------------|-3-------------------|-3-------------------|
   W.                    Q.  E Q   H.          Q.  E E E Q.  E E E   Q.  E E E Q.  E E E

G|---------------------|---------------------|---------------------|---------------------|
D|-----0-2-0-3---0-2-0-|-----0-2-0-3---0-2-0-|-----0-2-0-3---0-2-0-|-----0-2-0-3---0-2-0-|
A|---------------------|---------------------|---------------------|---------------------| x2
E|-3-------------------|-3-------------------|-3-------------------|-3-------------------|
   Q.  E E E Q.  E E E   Q.  E E E Q   E E E   Q.  E E E Q.  E E E   Q.  E E E Q.  E E E

G|-----------------7-7-|-8-------------------|---------------------|---------------------|
D|---------------------|---8---8-8-----------|-----0-2-0-3---0-2-0-|-----0-2-0-3---0-2-0-|
A|-5---------5---------|-----------6---5---5-|---------------------|---------------------|
E|---------------------|---------------------|-3-------------------|-3-------------------|
   H.        H     E E   E Q   S S Q   H   Q   Q.  E E E Q.  E E E   Q.  E E E Q.  E E E

G|---------------------|---------------------|---------------------|---------------------|
D|-----0-2-0-3---0-2-0-|-----0-2-0-3---0-2-0-|-----0-2-0-3---0-2-0-|-----0-2-0-3---0-2-0-|
A|---------------------|---------------------|---------------------|---------------------| x2
E|-3-------------------|-3-------------------|-3-------------------|-3-------------------|
   Q.  E E E Q.  E E E   Q.  E E E Q   E E E   Q.  E E E Q.  E E E   Q.  E E E Q.  E E E

G|---------------------|---------------------|---------------------|---------------------|
D|---------------------|---------7-----------|-----0-2-0-3---0-2-0-|-----0-2-0-3---0-2-0-|
A|-5---------5---------|-6---------5---------|---------------------|---------------------|
E|---------------------|---------------------|-3-------------------|-3-------------------|
   H.        H.          H.    E E H.          Q.  E E E Q.  E E E   Q.  E E E Q.  E E E

[Vamp 5]

G|---------------------|---------------------|---------------------|---------------------|
D|-----0-2-0-3---0-2-0-|-----0-2-0-3---0-2-0-|-----0-2-0-3---0-2-0-|-----0-2-0-3---0-2-0-|
A|---------------------|---------------------|---------------------|---------------------|
E|-3-------------------|-3-------------------|-3-------------------|-3-------------------|
   Q.  E E E Q.  E E E   Q.  E E E Q   E E E   Q.  E E E Q.  E E E   Q.  E E E Q.  E E E

[Tenor Solo]

G|---------------------|---------------------|---------------------|---------------------|
D|-----0-2-0-3---0-2-0-|-----0-2-0-3---0-2-0-|-----0-2-0-3---0-2-0-|-----0-2-0-3---0-2-0-|
A|---------------------|---------------------|---------------------|---------------------| x2
E|-3-------------------|-3-------------------|-3-------------------|-3-------------------|
   Q.  E E E Q.  E E E   Q.  E E E Q   E E E   Q.  E E E Q.  E E E   Q.  E E E Q.  E E E

G|---------------------|---------------------|---------------------|---------------------|
D|-------------------8-|---------7-----------|-----0-2-0-3---0-2-0-|-----0-2-0-3---0-2-0-|
A|-5---------5---------|-6---------5---------|---------------------|---------------------|
E|---------------------|---------------------|-3-------------------|-3-------------------|
   H.        H     E E   H.    E E H.          Q.  E E E Q.  E E E   Q.  E E E Q.  E E E

G|---------------------|---------------------|---------------------|---------------------|
D|-----0-2-0-3---0-2-0-|-----0-2-0-3---0-2-0-|-----0-2-0-3---0-2-0-|-----0-2-0-3---0-2-0-|
A|---------------------|---------------------|---------------------|---------------------| x2
E|-3-------------------|-3-------------------|-3-------------------|-3-------------------|
   Q.  E E E Q.  E E E   Q.  E E E Q   E E E   Q.  E E E Q.  E E E   Q.  E E E Q.  E E E

G|---------------------|---------------------|---------------------|---------------------|
D|-------------------8-|---------------------|-----0-2-0-3---0-2-0-|-----0-2-0-3---0-2-0-|
A|-5---------5---------|-6---------5---------|---------------------|---------------------|
E|---------------------|---------------------|-3-------------------|-3-------------------|
   H.        H     E E   H.        H.          Q.  E E E Q.  E E E   Q.  E E E Q.    E E E

G|---------------------|---------------------|---------------------|---------------------|
D|-----0-2-0-3---0-2-0-|-----0-2-0-3---0-2-0-|-----0-2-0-3---0-2-0-|-----0-2-0-3---0-2-0-|
A|---------------------|---------------------|---------------------|---------------------| x2
E|-3-------------------|-3-------------------|-3-------------------|-3-------------------|
   Q.  E E E Q.  E E E   Q.  E E E Q   E E E   Q.  E E E Q.  E E E   Q.  E E E Q.  E E E

G|---------------------|---------------------|---------------------|---------------------|
D|-------------------8-|---------------------|-----0-2-0-3---0-2-0-|-----0-2-0-3---0-2-0-|
A|-5---------5---------|-6---------------5---|---------------------|---------------------|
E|---------------------|-----------5---------|-3-------------------|-3-------------------|
   H.        H     E E   H.        H     Q     Q.  E E E Q.  E E E   Q.  E E E Q.  E E E

G|---------------------|---------------------|---------------------|---------------------|
D|-----0-2-0-3---0-2-0-|-----0-2-0-3---0-2-0-|-----0-2-0-3---0-2-0-|-----0-2-0-3---0-2-0-|
A|---------------------|---------------------|---------------------|---------------------| x2
E|-3-------------------|-3-------------------|-3-------------------|-3-------------------|
   Q.  E E E Q.  E E E   Q.  E E E Q   E E E   Q.  E E E Q.  E E E   Q.  E E E Q.  E E E

G|-------------------8-|---------8-7---------|---------------------|---------------------|
D|---------------------|---------------------|-----0-2-0-3---0-2-0-|-----0-2-0-3---0-2-0-|
A|-5---------5---------|-6---------------5---|---------------------|---------------------|
E|---------------------|---------------------|-3-------------------|-3-------------------|
   H.        H     E E   H     E E H     Q     Q.  E E E Q.  E E E   Q.  E E E Q.  E E E

[Vamp 6]

G|---------------------|---------------------|---------------------|---------------------|
D|-----0-2-0-3---0-2-0-|-----0-2-0-3---0-2-0-|-----0-2-0-3---0-2-0-|-----0-2-0-3---0-2-0-|
A|---------------------|---------------------|---------------------|---------------------|
E|-3-------------------|-3-------------------|-3-------------------|-3-------------------|
   Q.  E E E Q.  E E E   Q.  E E E Q   E E E   Q.  E E E Q.  E E E   Q.  E E E Q.  E E E

[Piano Solo]

G|---------------------|---------------------|---------------------|---------------------|
D|-----0-2-0-3---0-2-0-|-----0-2-0-3---0-2-0-|-----0-2-0-3---0-2-0-|-----0-2-0-3---0-2-0-|
A|---------------------|---------------------|---------------------|---------------------| x2
E|-3-------------------|-3-------------------|-3-------------------|-3-------------------|
   Q.  E E E Q.  E E E   Q.  E E E Q   E E E   Q.  E E E Q.  E E E   Q.  E E E Q.  E E E

G|---------------------|---------------------|---------------------|---------------------|
D|---------------------|---------------------|-----0-2-0-3---0-2-0-|-----0-2-0-3---0-2-0-|
A|-5---------5---------|-6---------5---------|---------------------|---------------------|
E|---------------------|---------------------|-3-------------------|-3-------------------|
   H.        H.          Q   H     H.          Q.  E E E Q.  E E E   Q.  E E E Q.  E E E

G|---------------------|---------------------|---------------------|---------------------|
D|-----0-2-0-3---0-2-0-|-----0-2-0-3---0-2-0-|-----0-2-0-3---0-2-0-|-----0-2-0-3---0-2-0-|
A|---------------------|---------------------|---------------------|---------------------| x2
E|-3-------------------|-3-------------------|-3-------------------|-3-------------------|
   Q.  E E E Q.  E E E   Q.  E E E Q   E E E   Q.  E E E Q.  E E E   Q.  E E E Q.  E E E

G|---------------------|---------------------|---------------------|---------------------|
D|---------------------|---------7-----------|-----0-2-0-3---0-2-0-|-----0-2-0-3---0-2-0-|
A|-5-------------------|-6---------5---------|---------------------|---------------------|
E|-----------5-------6-|---------------------|-3-------------------|-3-------------------|
   H.        H     E E   H     E E H.          Q.  E E E Q.  E E E   Q.  E E E Q.  E E E

[Vamp 7]

G|---------------------|---------------------|---------------------|---------------------|
D|-----0-2-0-3---0-2-0-|-----0-2-0-3---0-2-0-|-----0-2-0-3---0-2-0-|-----0-2-0-3---0-2-0-|
A|---------------------|---------------------|---------------------|---------------------|
E|-3-------------------|-3-------------------|-3-------------------|-3-------------------|
   Q.  E E E Q.  E E E   Q.  E E E Q   E E E   Q.  E E E Q.  E E E   Q.  E E E Q.  E E E

[Chorus 3]

G|---------------------|---------------------|---------------------|---------------------|
D|-----0-2-0-3---0-2-0-|-----0-2-0-3---0-2-0-|-----0-2-0-3---0-2-0-|-----0-2-0-3---0-2-0-|
A|---------------------|---------------------|---------------------|---------------------| x2
E|-3-------------------|-3-------------------|-3-------------------|-3-------------------|
   Q.  E E E Q.  E E E   Q.  E E E Q   E E E   Q.  E E E Q.  E E E   Q.  E E E Q.  E E E

G|---------------------|---------------------|---------------------|---------------------|
D|---------------------|---------------------|---------------------|-----0-2-0-3---------|
A|-5---------5---------|-6---------5---------|---------------5-----|-----------------5---|
E|---------------------|---------------------|-3-------------------|-3-------------------|
   H.        H.          Q   H     H.          Q.  E Q   Q   H       Q.  E E E H     Q

[Vamp 8]

G|---------------------|---------------------|---------------------|---------------------|
D|-----0-2-0-3---0-2-0-|-----0-2-0-3---0-2-0-|-----0-2-0-3---0-2-0-|-----0-2-0-3---0-2-0-|
A|---------------------|---------------------|---------------------|---------------------|
E|-3-------------------|-3-------------------|-3-------------------|-3-------------------|
   Q.  E E E Q.  E E E   Q.  E E E Q   E E E   Q.  E E E Q.  E E E   Q.  E E E Q.  E E E

[Chorus 4]

G|---------------------|---------------------|---------------------|---------------------|
D|-----0-2-0-3---0-2-0-|-----0-2-0-3---0-2-0-|-----0-2-0-3---0-2-0-|-----0-2-0-3---0-2-0-|
A|---------------------|---------------------|---------------------|---------------------| x2
E|-3-------------------|-3-------------------|-3-------------------|-3-------------------|
   Q.  E E E Q.  E E E   Q.  E E E Q   E E E   Q.  E E E Q.  E E E   Q.  E E E Q.  E E E

G|---------------------|---------------------|---------------------|---------------------|
D|---------------------|---------------------|-----0-2-0-3---0-2-0-|-----0-2-0-3---0-2-0-|
A|-5---------5---------|-6---------5---------|---------------------|---------------------|
E|---------------------|---------------------|-3-------------------|-3-------------------|
   H.        H.          Q   H     H.          Q.  E E E Q.  E E E   Q.  E E E Q.  E E E

[Vamp 9]

G|---------------------|---------------------|---------------------|---------------------|
D|-----0-2-0-3---0-2-0-|-----0-2-0-3---0-2-0-|-----0-2-0-3---0-2-0-|-----0-2-0-3---0-2-0-|
A|---------------------|---------------------|---------------------|---------------------|
E|-3-------------------|-3-------------------|-3-------------------|-3-------------------|
   Q.  E E E Q.  E E E   Q.  E E E Q   E E E   Q.  E E E Q.  E E E   Q.  E E E Q.  E E E

[Outro]

G|---------------------|---------------------|---------------------|---------------------|
D|-----0-2-0-3---0-2-0-|-----0-2-0-3---0-2-0-|-----0-2-0-3---0-2-0-|-----0-2-0-3---0-2-0-|
A|---------------------|---------------------|---------------------|---------------------| x2
E|-3-------------------|-3-------------------|-3-------------------|-3-------------------|
   Q.  E E E Q.  E E E   Q.  E E E Q   E E E   Q.  E E E Q.  E E E   Q.  E E E Q.  E E E

G|---------------------|---------------------|---------------------|---------------------||
D|---------------------|---------7-----------|-----0-2-0-3---0-2-0-|-----0-2-0-3---0-2-0-||
A|-5---------------5-5-|-6---------5---------|---------------------|---------------------||
E|-----------5---------|---------------------|-3-------------------|-3-------------------||
   H.        H   E S S   H     E E H.          Q.  E E E Q.  E E E   Q.  E E E Q.  E E E
Suggest correction
Creating personal tab
Creating personal tab
You can edit any tab online and save it as your Personal.

You can edit, replace or remove any tab part or add personal notes – all changes will be seen only by you.

Personal tabs can be accessed anytime from any device, even offline.
Learn more »
Give kudos to tab author, rate the tab!
1 2 3 4 5
comments
print report bad tab
guest
You may want to rate the tab now too:
select rating
Wanna post a correction for this tab? Suggest correction