Oops, an error
Loading. Please wait.

So What Bass Tab

version 2
version 2

Whole song

Interactive

32,157 views 120 this week
5 commentsread comments
1 2 3 4 5
accurate
x 12
add to favorites
launch autoscroll
font size
0
reset
guitar tuner
Autoscroll
slow
fast
+/-
esc
set tempo
stop
Help us to improve Ultimate-Guitar.com Take our survey!
×
Tabbed by the KombuchaMushroom

"So What",
From the one of a kind album, Kind of Blue!

This song sounds best on an upright bass with a good deep resonance.


[Intro]

(Paul and Wynton) Very hard to hear becuase of the old recording's quality, but 
can do your own thing here too if you wish.

         *Piano*    *Piano*     *Piano*
G|-----2----------1----------0---------|
D|---2----------2----------2-----------|
A|-0----------0----------0-------------|
E|-------------------------------------|

 Together
G|-2---0-----------0------2---1---0-|
D|---2---3-2---2-3------0---0---0---|
A|-----------0----------------------|
E|----------------------------------|

      *Long Piano Break*
G|---------------------------|
D|-2----------1--------------|
A|-------------------------0-|
E|---------------------------|

 Just Paul
G|-------2-------|
D|---1-2---0-1---|
A|-0-----------0-|
E|---------------|


[Head]

 Riff 1: Play 2x
                       *Horns*                        *Horns*
G|------4-5--7/9--5-7----------------4-5--7/9--5-7---------|
D|-0-7--------------------------0-7----------------7-------|
A|---------------------------------------------------------|
E|---------------------------------------------------------|

                       *Horns*               *Horns*
G|------4-5--7/9--5-7-----------7/9-9-9-7-----------|
D|-0-7-------------------------------------7--------|
A|--------------------------------------------------|
E|--------------------------------------------------|

 Riff 2: Play once (Same riff up 1/2 step)
                       *Horns*                        *Horns*
G|------5-6--8/10--6-8---------------5-6--8/10--6-8--------|
D|---8----------------------------8------------------8-----|
A|-6----------------------------6--------------------------|
E|---------------------------------------------------------|

                       *Horns*                        *Horns*
G|------5-6--8/10--6-8---------------5-6--8/10--6-8----------|
D|---8----------------------------8------------------8-------|
A|-6----------------------------6----------------------------|
E|-----------------------------------------------------------|

 Riff 1: Play once
                       *Horns*                        *Horns*
G|------4-5--7/9--5-7----------------4-5--7/9--5-7----------|
D|-0-7--------------------------0-7----------------7--------|
A|----------------------------------------------------------|
E|----------------------------------------------------------|

                       *Horns*               *Horns*
G|------4-5--7/9--5-7-----------7/9-9-9-7-----------|
D|-0-7-------------------------------------7--------|
A|--------------------------------------------------|
E|--------------------------------------------------|


Walk during the solos in the following progression
Dmin7 x32
+Ebmin7 x8
+Dmin7 x8
=
1 chorus

Play the head once out. (Riff 1+Riff 1+Riff 2+Riff 1)

Happy Jamming!

************************************

| /  Slide up

************************************
Suggest correction
comments
print report bad tab
5 comments total. Showing first comments.
0 reply
jirolico 91 wrote on April 24 2007, 09:20 pm

Perfect tab

0 reply
sinan90 402 wrote on May 29 2007, 05:32 am

In the riff in D it goes 0-7 on the D string, apart from that very good tab.

-1 reply
erhitfm 113 wrote on January 3 2009, 12:56 pm

the begining is not right im not a music wizz so i wouldn't no what goes ther but the beigning doesn't go the way u rote it

guest
You may want to rate the tab now too:
select rating
Please do not post tabs as comments. Select "correction" instead!