Oops, an error
Loading. Please wait.

So What Bass Tab

version 3
version 3

Whole song

Interactive

7,962 views 6 this week
no commentswrite comment
1 2 3 4 5
please rate
add to favorites
launch autoscroll
font size
0
reset
guitar tuner
Autoscroll
slow
fast
+/-
esc
set tempo
stop
Help us to improve Ultimate-Guitar.com Take our survey!
×
Author
Difficulty
intermediate
G-------------------7-5-|
D-------------------7-5-|
A---------5-7-5---------|
E-3/5-7-8-------5-------|

G-------------------7-5-|
D-------------------7-5-|
A---------5-7-5~--------|
E-3/5-7-8---------------|


G-------------------7-5-|
D-------------------7-5-|
A---------5-7-5---------|
E-3/5-7-8-------5-------|


G------------7-5-|
D------------7-5-|
A--7--7-7-5------|
E----------------|

G------------------8-6-|
D------------------8-6-|
A---------6-8-6--------|
E-4/6-8-9-------6------|

G------------------8-6--|
D------------------8-6--|
A---------6-8-6~--------|
E-4/6-8-9---------------|

G------------------8-6-|
D------------------8-6-|
A---------6-8-6--------|
E-4/6-8-9-------6------|


G------------------8-6-|
D------------------8-6-|
A------8--8-8-6--------|
E----------------------|

Solo:

G--19-----17--------------14-12-14--------------14-12-14-----------|
D-----------------12----12--------12-12---12-12----------12-12--12-|
A------------------------------------------------------------------|
E------------------------------------------------------------------|

14-12-14-/17--16-17-16-14--12-14-12-14-------|
---------------------------------------12-12-|
---------------------------------------------|
---------------------------------------------|

etc.
Suggest correction
Give kudos to tab author, rate the tab!
1 2 3 4 5
comments
print report bad tab
guest
You may want to rate the tab now too:
select rating
Wanna post a correction for this tab? Suggest correction