Oops, an error
Loading. Please wait.

First Of My Kind Bass Tab

879 views 1 this week
no commentswrite comment
1 2 3 4 5
please rate
add to favorites
launch autoscroll
font size
0
reset
guitar tuner
Tab Pro tools
  • play this tab
  • loop segment
  • change instrument
  • show fretboard
  • metronome
×
Best way to learn
"First Of My Kind"
Autoscroll
slow
fast
+/-
esc
set tempo
stop
Contributor
Difficulty
intermediate
Miles Kane's First of My kind.
Standard Tuning.

Personally, this is my first tab attempt and I've spent a good long time on it. If
things are wrong please make them known so they can be changed. But I must be
honest in saying it's one hell of a try and a good tune to play. Difficulty
depends on your experience at playing the Bass Guitar. It seems quite clear to
read and just anticipate the slide (there aren't a lot)

           INTRO
G|-------------------------------------|
D|-------------------------------------|
A|---10--------9--------8--------9-----|   x2
E|-------------------------------------|

          Verse ( True romance...)
G|------------------------|
D|------------------------|
A|----10----10--10---5-8--|   x6
E|------------------------|

G|--------------------------------------------------------|
D|--------------------------------------------------------|
A|---10----10--10---53-------1-3-------1-3-------1-3------|
E|--------------------------3---------3---------3---------|


G|------------------------|
D|------------------------|
A|----10----10--10---5-8--|
E|------------------------|

      Pre Chorus ( Im on higher ground)
G|-------------------------------------------------------------|
D|-------------------------------------------------------------|
A|----5---5--5-5-3-------------3-6---6--6-6-8------------------|
E|------------------3---3--3-3------------------6---6--6-6-8---|

G|-----------------------------------------------------|
D|-----------------------------------------------------|
A|----5---5--5-5-3-------------3-5---5--1-3---5---5----|
E|------------------3---3--3-3-------------------------|

     Chorus
G|--------------------------------------------------------------|
D|--------------------------------------------------------------|
A|-----------------11--1-1--0-3-----55--5-5--1-3-55--5-5--1-3---|   X2
E|---33--3-3-1-3------------------------------------------------|

    Verse  ( sub zero...)
G|------------------------|
D|------------------------|
A|----10----10--10---5-8--|  X2
E|------------------------|

G|--------------------------------------------------------|
D|--------------------------------------------------------|
A|---10----10--10---53--------1-3-------1-3-------1-3-----|
E|--------------------------3---------3---------3---------|

G|------------------------|
D|------------------------|
A|----10----10--10---5-8--|
E|------------------------|

      Pre Chorus ( Im on higher ground...)
G|-------------------------------------------------------------|
D|-------------------------------------------------------------|
A|----5---5--5-5-3-------------3-6---6--6-6-8------------------|
E|------------------3---3--3-3------------------6---6--6-6-8---|

G|-----------------------------------------------------|
D|-----------------------------------------------------|
A|----5---5--5-5-3-------------3-5---5--1-3-5---5-55---|
E|------------------3---3--3-3-------------------------|

     Chorus
G|--------------------------------------------------------------|
D|--------------------------------------------------------------|
A|-----------------11--1-1--0-3-----55--5-5--1-3-55--5-55-------|
E|---33--3-3--1-3-----------------------------------------------|

G|--------------------------------------------------------------|
D|--------------------------------------------------------------|
A|-----------------11--1-1--0-3-----55--5-5--1-3-5--5-3-5-------|
E|---33--3-3--1-3-----------------------------------------------|

     (Those exploding rose...)
G|-------------------------------------------------------------------------|
D|-------------------------------------------------------------------------|
A|---6--6-646--6--6-6646--6--1--1--101--1-1--1101--13--5--5-535--5-5--5535-|
E|-------------------------------------------------------------------------|

G|------------------------------------|
D|------------------------------------|
A|---3---------------------------13---|
E|-----3--3-3-1-3--3-3--3-3-1-3-------|

G|-------------------------------------------------------------------------|
D|-------------------------------------------------------------------------|
A|---6--6-646--6--6-6646--6--1--1--101--1-1--1101--13--5--5-535--5-5--5535-|
E|-------------------------------------------------------------------------|

G|-------------------------|
D|-------------------------|
A|---5---55--5--55-55------|
E|-------------------------|
        Chorus
G|--------------------------------------------------------------|
D|--------------------------------------------------------------|
A|-----------------1--1-1--0-3-----5--5-5--1-3-55--5-5--1-3-----|   X2
E|---3--3-3-1-3-------------------------------------------------|

      Outro
G|--------------------------------------------------------------|
D|--------------------------------------------------------------|
A|-----------------11--1-1--0-3-----55--5-5--1-3-55--5-55-------|   X4
E|---33--3-3--1-3-----------------------------------------------|
comments
We did not receive enough feedback on this tab! Please rate:
print report bad tab
1 2 3 4 5
I want to post or [tab]
guest
You may want to rate the tab now too:
select rating
Please do not post tabs as comments. Select "correction" instead!