Oops, an error
Loading. Please wait.

Give Up Tab

version 1
version 1

Whole song

9,631 views 9 this week
7 commentsread comments
1 2 3 4 5
accurate
x 5
add to favorites
launch autoscroll
font size
0
reset
how to read this tab
guitar tuner
Tab Pro tools
  • play this tab
  • loop segment
  • change instrument
  • show fretboard
  • metronome
×
Best way to learn
"Give Up"
Autoscroll
slow
fast
+/-
esc
set tempo
stop
Contributor
Difficulty
intermediate
Intro/Outro:
|--------------------------------------------------------------------------|
|--------------------------------------------------------------------------|
|12~~-12h13h12--10-12~~-12h13h12-10-12-8----------8-10-10--12h13h12-10(x2)-| 
|-----------------------------------------10~~--10-------------------------|
|--------------------------------------------------------------------------|
|--------------------------------------------------------------------------|

Verse:
|---------------------------------------------|
|---------------------------------------------|
|---------------------------------------------|
|10----13-10----5-10----10-13--13-8-8-8-8-----|
|10----13-10----5-10----10-13--13-8-8-8-8-----|
|8-----11-8-----3-8-----8--11--11-6-6-6-6(x2)-|

Bridge:
|------------------------------------|
|------------------------------------|
|------------------------------------|
|------------------------------------|
|------------------------------------|
|4(x8)-8(x4)-2(x4)-4(x8)-3(x4)-6(x4)-|

Chorus:
|-------------------------------------------------------------------|
|-------------------------------------------------------------------|
|-------------------------8--8----------10-------------8--8---------|
|10--10--10-10-10-------6-8--8-8-8-8-8--10-----------6-8--8-8-8-8-8-|
|10--10--10-10-10-8-6-8---6--6-8-8-8-8--8-(x8)-8-6-8---6--6-8-8-8-8-|
|8---8---8--8--8---------------6-6-6-6----------------------6-6-6-6-|

|----------------------------------------------------------------|
|----------------------------------------------------------------|
|-------------------------------------------10-------------------|
|10---10---10-10-10--10-13-13-13-13-8-8-8-8-10-----13-13-8-8-8-8-|
|10---10---10-10-10--10-13-13-13-13-8-8-8-8-8-(x6)-13-13-8-8-8-8-|
|8----8----8--8--8---8--11-11-11-11-6-6-6-6--------11-11-6-6-6-6-|

These are all the parts you need for the whole song.
Order:
Intro/Outro
Verse
Bridge
Chorus
Verse
Bridge
Chorus
(No guitar for "You're pretty, good lookin', but I'm lookin' for a way out")
Last few notes of the Bridge
Chorus
Intro/Outro

Please rate and share.

Tabbed by Lewis Hall
comments
print report bad tab
7 comments total. Showing first comments.
+1 reply
charlieunderhil wrote on February 12 2013, 07:58 am

Its a good guide line but you have got some of the notes wrong

0 reply
Lunasco_23 wrote on February 15 2013, 10:02 am

Try this for the intro, I agree with charlie it's a good guideline but you haven't quite got it nailed.

Intro/Outro:
|--------------------------------------------------------------|
|--------------------------------------------------------------|
|12~~-12h13h12--10-12~~-12h13h12-10-12-8----------8-10-10------|
|-----------------------------------------10~~--10-------------|
|--------------------------------------------------------------|
|--------------------------------------------------------------|

G|12h13h12-10-12h13h12-10|

0 reply
LewisHallAM505 wrote on February 16 2013, 07:07 pm

Do you think the intro is the only bit that's off? I agree with the Intro, but I was confident I hit the rest pretty well

I want to post or [tab]
guest
You may want to rate the tab now too:
select rating
Please do not post tabs as comments. Select "correction" instead!