Oops, an error
Loading. Please wait.

Inhaler Bass Tab

version 1
version 1

Whole song

3,144 views 3 this week
no commentswrite comment
1 2 3 4 5
please rate
add to favorites
launch autoscroll
font size
0
reset
guitar tuner
Autoscroll
slow
fast
+/-
esc
set tempo
stop
Help us to improve Ultimate-Guitar.com Take our survey!
×
Difficulty
intermediate
TUNING = NORMAL

MAIN RIFF:

G------------2-0---0-2-----------------|
D------4-2-0-----4---------------------|
A--2-2---------------------------------|
E--------------------------------------|

CHORUS:

G----------------------------------|
D----------------------------------|
A----------------------------------|
E--3-3-3-3-3-3-3-3-3-3-3-3-3-3-3-3-|

G----------------------------------|
D----------------------------------|
A----------------------------------|
E--0-0-0-0-0-0-0-0-0-0-0-0-0-0-0-0-|

SOLO:

MAIN RIFF


THIS IS MY FIRST TAB SO SORRY FOR MISTAKES IF ANY.
CHEERS, SCOTT
Suggest correction
Give kudos to tab author, rate the tab!
1 2 3 4 5
comments
print report bad tab
guest
You may want to rate the tab now too:
select rating
Wanna post a correction for this tab? Suggest correction