Oops, an error
Loading. Please wait.

Inhaler Tab

version 1
version 1

Whole song

16,641 views 1 this week
1 commentread comment
1 2 3 4 5
2 more votes to show rating
add to favorites
launch autoscroll
font size
0
reset
how to read this tab
guitar tuner
Autoscroll
slow
fast
+/-
esc
set tempo
stop
Help us to improve Ultimate-Guitar.com Take our survey!
×
http://www.mileskane.com/

Main Riff:

----------------------------------------|
----------------------------------------|
----------------------------------------|
---------3-2-0-----5-4-3--4-5-----------|
---2-2----------------------------------|
----------------------------------------|

Chorus:

----------------------------------------|
----------------------------------------|
----------------------------------------|
---55555555555555-----------------------|
---55555555555555-----------------------|
---33333333333333-----------------------|

Inhaler!

-----------------------------------------------------|
-----------------------------------------------------|
---9999999999999-------------------------------------|
---9999999999999----------or----1414141414141414-----|
---7777777777777----------------1414141414141414-----|
---0000000000000----------------1212121212121212-----|

Inhaler!

And the last chorus before the solo goes

----------------------------------------|
----------------------------------------|
----------------------------------------|
---55555555555555-----------------------|
---55555555555555-----------------------|
---33333333333333-----------------------|

Inhaler!

----------------------------------------|
----------------------------------------|
----------------------------------------|
---66666666666666-----------------------|
---66666666666666-----------------------|
---44444444444444-----------------------|

Inhaler!

Those are the main parts of the song, I will try and tab the solo later.
Suggest correction
Give kudos to tab author, rate the tab!
1 2 3 4 5
comments
print report bad tab
1 comment total.
0 reply
Sketchead 30 Nov 19, 2010 12:33 PM

D|------------7-6-5-6-7-|
A|------7-6-5-----------|
E|--7-7-----------------|

???:S

guest
You may want to rate the tab now too:
select rating
Wanna post a correction for this tab? Suggest correction