Oops, an error
Loading. Please wait.

Inhaler Bass Tab

version 2
version 2

Whole song

514 views 1 this week
no commentswrite comment
1 2 3 4 5
3 more votes to show rating
add to favorites
launch autoscroll
font size
0
reset
guitar tuner
Autoscroll
slow
fast
+/-
esc
set tempo
stop
Help us to improve Ultimate-Guitar.com Take our survey!
×
Difficulty
novice
Main Riff:
G|----------------------|
D|------------7-6-5-6-7-|
A|------7-6-5-----------|
E|--7-7-----------------|

CHORUS:

G----------------------------------|
D----------------------------------|
A----------------------------------|
E--3-3-3-3-3-3-3-3-3-3-3-3-3-3-3-3-|

G----------------------------------|
D----------------------------------|
A----------------------------------|
E--0-0-0-0-0-0-0-0-0-0-0-0-0-0-0-0-|

SOLO: Its The Same As The Main Riff
Suggest correction
Give kudos to tab author, rate the tab!
1 2 3 4 5
comments
print report bad tab
guest
You may want to rate the tab now too:
select rating
Wanna post a correction for this tab? Suggest correction