Oops, an error
Loading. Please wait.

Inhaler Tab

version 4
version 4

Whole song

686 views 1 this week
no commentswrite comment
1 2 3 4 5
1 last vote to show rating
add to favorites
launch autoscroll
font size
0
reset
how to read this tab
guitar tuner
Autoscroll
slow
fast
+/-
esc
set tempo
stop
Help us to improve Ultimate-Guitar.com Take our survey!
×
Author
Difficulty
novice
:: INFO ::
Miles Kane - Inhaler.
Tabbed By Steve (Twitter: @JSMan07).

:: KEY ::
|--9v^v^v-| - Whammy bar

|--(5)----| - Optional/Ghost notes





:: INTRO ::
(Start with Volume swell) then:
                                     
e|---------------------------|---------------------------|
B|---------------------------|---------------------------|
G|---------------------------|---------------------------|
D|-----------7-6-5--6-7------|----------------7-6-5--6-7-|
A|-----8-7-5-----------------|----------8-7-5------------|
E|-7-7-----------------------|-(5)--7-7------------------|

e|---------------------------|---------------------------|
B|---------------------------|---------------------------|
G|---------------------------|---------------------------|
D|----------------7-6-5--6-7-|----------------7-6-5--6-7-|
A|----------8-7-5------------|----------8-7-5------------|
E|-(5)--7-7------------------|-(5)--7-7------------------|


: VERSE :
I've been lookin forward to liftin up the veil
Guess is the answer you know that for sure
The night time is the right time don't you know girl
You've heard it before
Hey!...


: CHORUS :
e|-----------------------------------|--------------------------------------------------|
B|-----------------------------------|--------------------------------------------------|
G|-----------------------------------|--------------------------------------------------|
D|---------------7-6-5--6-7----------|------------------7-6-5--6-7----------------------|
A|--------8-7-5----------------------|-----------8-7-5----------------------------------|
E|---7-7-----------------------------|-(5)--7-7-----------------------------------------|

Inhaler____________________________    Inhaler_________________________ Yeah Yeah Yeah
e|-----------------------------------|--------------------------------------------------|
B|-----------------------------------|--------------------------------------------------|
D|-----------------------------------|--------------------------------------------------|
G|-5---------------------------------|-/14-14-14-14-14-14-14-14-14-14-14-14-14-14-14-14-|
A|-5---------------------------------|-/14-14-14-14-14-14-14-14-14-14-14-14-14-14-14-14-|
E|-3---------------------------------|-/12-12-12-12-12-12-12-12-12-12-12-12-12-12-12-12-|
   ^ Can be strummed 16 times or just held.
 
                        Yeah  Yeah Yeah                         
e|-----------------------------------|--------------------------------------------------|
B|-----------------------------------|--------------------------------------------------|
G|-----------------------------------|--------------------------------------------------|
D|---------------7-6-5--6-7----------|------------------7-6-5--6-7----------------------|
A|--------8-7-5----------------------|-----------8-7-5----------------------------------|
E|---7-7-----------------------------|-(5)--7-7-----------------------------------------|

Inhaler____________________________    Inhaler_________________________ Yeah Yeah Yeah
e|-----------------------------------|--------------------------------------------------|
B|-----------------------------------|--------------------------------------------------|
D|-----------------------------------|--------------------------------------------------|
G|-5---------------------------------|-/14-14-14-14-14-14-14-14-14-14-14-14-14-14-14-14-|
A|-5---------------------------------|-/14-14-14-14-14-14-14-14-14-14-14-14-14-14-14-14-|
E|-3---------------------------------|-/12-12-12-12-12-12-12-12-12-12-12-12-12-12-12-12-|
   ^ Can be strummed 16 times or just held.

                        Yeah  Yeah Yeah                         
e|-----------------------------------|--------------------------------------------------|
B|-----------------------------------|--------------------------------------------------|
G|-----------------------------------|--------------------------------------------------|
D|---------------7-6-5--6-7----------|------------------7-6-5--6-7----------------------|
A|--------8-7-5----------------------|-----------8-7-5----------------------------------|
E|---7-7-----------------------------|-(5)--7-7-----------------------------------------|


: VERSE:
Cold is the shoulder you'll give me for sure
Dance with your hips and grind on the floor
The night time is the right time don't you know girl
You've heard it before
Hey!...


:CHORUS:
e|-----------------------------------|--------------------------------------------------|
B|-----------------------------------|--------------------------------------------------|
G|-----------------------------------|--------------------------------------------------|
D|---------------7-6-5--6-7----------|------------------7-6-5--6-7----------------------|
A|--------8-7-5----------------------|-----------8-7-5----------------------------------|
E|---7-7-----------------------------|-(5)--7-7-----------------------------------------|

Inhaler____________________________    Inhaler_________________________ Yeah Yeah Yeah
e|-----------------------------------|--------------------------------------------------|
B|-----------------------------------|--------------------------------------------------|
D|-----------------------------------|--------------------------------------------------|
G|-5---------------------------------|-/14-14-14-14-14-14-14-14-14-14-14-14-14-14-14-14-|
A|-5---------------------------------|-/14-14-14-14-14-14-14-14-14-14-14-14-14-14-14-14-|
E|-3---------------------------------|-/12-12-12-12-12-12-12-12-12-12-12-12-12-12-12-12-|

                        Yeah  Yeah Yeah                         
e|-----------------------------------|--------------------------------------------------|
B|-----------------------------------|--------------------------------------------------|
G|-----------------------------------|--------------------------------------------------|
D|---------------7-6-5--6-7----------|------------------7-6-5--6-7----------------------|
A|--------8-7-5----------------------|-----------8-7-5----------------------------------|
E|---7-7-----------------------------|-(5)--7-7-----------------------------------------|

Inhaler____________________________    Inhaler_________________________ 
e|-----------------------------------|--------------------------------------------------|
B|-----------------------------------|--------------------------------------------------|
D|-----------------------------------|--------------------------------------------------|
G|-5-5-5-5-5-5-5-5-5-5-5-5-5-5-5-5---|-/14-14-14-14-14-14-14-14-14-14-14-14-14-14-14-14-|
A|-5-5-5-5-5-5-5-5-5-5-5-5-5-5-5-5---|-/14-14-14-14-14-14-14-14-14-14-14-14-14-14-14-14-|
E|-3-3-3-3-3-3-3-3-3-3-3-3-3-3-3-3---|-/12-12-12-12-12-12-12-12-12-12-12-12-12-12-12-12-|

Inhaler____________________________    Inhaler__________ Yeah Yeah Yeah 
e|-----------------------------------|--------------------------------------------------|
B|-----------------------------------|--------------------------------------------------|
D|-----------------------------------|--------------------------------------------------|
G|-5-5-5-5-5-5-5-5-5-5-5-5-5-5-5-5---|-6-6-6-6-6-6-6-6-6-6-6-6-6-6-6-6------------------|
A|-5-5-5-5-5-5-5-5-5-5-5-5-5-5-5-5---|-6-6-6-6-6-6-6-6-6-6-6-6-6-6-6-6------------------|
E|-3-3-3-3-3-3-3-3-3-3-3-3-3-3-3-3---|-4-4-4-4-4-4-4-4-4-4-4-4-4-4-4-4------------------|

                        Yeah  Yeah Yeah                         
e|-----------------------------------|--------------------------------------------------|
B|-----------------------------------|--------------------------------------------------|
G|-----------------------------------|--------------------------------------------------|
D|---------------7-6-5--6-7----------|------------------7-6-5--6-7----------------------|
A|--------8-7-5----------------------|-----------8-7-5----------------------------------|
E|---7-7-----------------------------|-(5)--7-7-----------------------------------------|


: SOLO :
e|-----------------------------------|-----------------------------------|
B|-----------------------------------|-----------------------------------|
G|-9b-9-7-9b--7-9bv^v^v^v^v^---------|--9b(9)-7-9b-7----7---7v^v^v^v^v^--|
D|-----------------------------------|---------------9----9--------------|
A|-----------------------------------|-----------------------------------|
E|-----------------------------------|-----------------------------------|

e|--------------------------------------------------/17v^v^v^-v19v^v^v^v-19v^v^v^v^----|
B|-/12-15-15--17-17--15-14-15--/17-17-19v^v^v^v^v^-------------------------------------|
G|-------------------------------------------------------------------------------------|
D|-------------------------------------------------------------------------------------|
A|-------------------------------------------------------------------------------------|
E|-------------------------------------------------------------------------------------|

e|-----------------------------------------------------------------------|
B|-----------------------------------------------------------------------|
G|-/14v^v^v^--/16v^v^v^--/17v^v^v^-------/14v^v^v^--/16v^v^v^--/17v^v^v^-|
A|-----------------------------------------------------------------------|
D|-----------------------------------------------------------------------|
E|-----------------------------------------------------------------------|


:OUTRO:
Inhaler____________________________    Inhaler_________________________ 
e|-----------------------------------|--------------------------------------------------|
B|-----------------------------------|--------------------------------------------------|
D|-----------------------------------|--------------------------------------------------|
G|-5-5-5-5-5-5-5-5-5-5-5-5-5-5-5-5---|-/14-14-14-14-14-14-14-14-14-14-14-14-14-14-14-14-|
A|-5-5-5-5-5-5-5-5-5-5-5-5-5-5-5-5---|-/14-14-14-14-14-14-14-14-14-14-14-14-14-14-14-14-|
E|-3-3-3-3-3-3-3-3-3-3-3-3-3-3-3-3---|-/12-12-12-12-12-12-12-12-12-12-12-12-12-12-12-12-|

Inhaler____________________________    Inhaler_________________________  Yeah yeah Yeah
e|-----------------------------------|--------------------------------------------------|
B|-----------------------------------|--------------------------------------------------|
D|-----------------------------------|--------------------------------------------------|
G|-5-5-5-5-5-5-5-5-5-5-5-5-5-5-5-5---|-/14-14-14-14-14-14-14-14-14-14-14-14-14-14-14-14-|
A|-5-5-5-5-5-5-5-5-5-5-5-5-5-5-5-5---|-/14-14-14-14-14-14-14-14-14-14-14-14-14-14-14-14-|
E|-3-3-3-3-3-3-3-3-3-3-3-3-3-3-3-3---|-/12-12-12-12-12-12-12-12-12-12-12-12-12-12-12-12-|

e|-----------------------|----------------------------|---------------------------|
B|-----------------------|----------------------------|---------------------------|
G|-----------------------|----------------------------|---------------------------|
D|-----------7-6-5--6-7--|----------------7-6-5--6-7--|----------------7-6-5--6-7-|
A|-----8-7-5-------------|----------8-7-5-------------|----------8-7-5------------|
E|-7-7-------------------|-(5)--7-7-------------------|-(5)--7-7------------------|

e|---------------------------|--------|
B|---------------------------|--------|
G|---------------------------|--------|
D|----------------7-6-5--6-7-|--------|
A|----------8-7-5------------|--------|
E|-(5)--7-7------------------|-7-7\---|
Suggest correction
Give kudos to tab author, rate the tab!
1 2 3 4 5
comments
print report bad tab
guest
You may want to rate the tab now too:
select rating
Wanna post a correction for this tab? Suggest correction