Oops, an error
Loading. Please wait.

Rearrange Bass Tab

version 1
version 1

Whole song

Interactive

2,328 views 9 this week
no commentswrite comment
1 2 3 4 5
2 more votes to show rating
add to favorites
launch autoscroll
font size
0
reset
guitar tuner
Autoscroll
slow
fast
+/-
esc
set tempo
stop
Help us to improve Ultimate-Guitar.com Take our survey!
×
Author
Difficulty
novice
MY FIRST TAB, SOUNDS ABOUT RIGHT!

MAIN RIFF

G|-----------------------------------|
D|-----------------------------------|
A|-12---12-9-12-------9---9-7-9------|
E|-----------------------------------|

G|-----------------------------------|
D|-----------------------------------|
A|-----------------------------------|
E|-9---9-7-9-------9---9-7-9---------|

OTHER PART....

G|-----------------------------------|
D|-----------------------------------|
A|-----------------------4-----------|
E|-5---------2-----------------------|
Suggest correction
Give kudos to tab author, rate the tab!
1 2 3 4 5
comments
print report bad tab
guest
You may want to rate the tab now too:
select rating
Wanna post a correction for this tab? Suggest correction