Oops, an error
Loading. Please wait.

Womans Touch chords

97 views 6 this week
no commentswrite comment
1 2 3 4 5
x 3
add to favorites
×
Save as Personal and add changes to this tab that will be seen only by you. Learn more ›
×
You can save this tab as Personal to edit and correct it or add notes. All changes will be seen only by you. Learn more »
launch autoscroll
font size
0
reset
transpose
0
reset
display chords
guitar tuner
edit
Autoscroll
slow
fast
+/-
esc
set tempo
stop
Author
Difficulty
intermediate
Strumming
There is no strumming pattern for this song yet. and get +5 IQ
[Intro]

e|-------10--8--10--8------10--8------10--10--8------------------------------|
B|---------------------10---------10--------------10-------------------------|
G|---------------------------------------------------------------------------|
D|---------------------------------------------------------------------------|
A|---------------------------------------------------------------------------|
E|---------------------------------------------------------------------------|


e|-------10--8--10--8------10--8------10--10--8------------------------------|
B|---------------------10---------10--------------10-------------------------|
G|---------------------------------------------------------------------------|
D|---------------------------------------------------------------------------|
A|---------------------------------------------------------------------------|
E|---------------------------------------------------------------------------|
 
e|-------8s10s8--10--8------10--8------10--10--8-----------------------------|
B|---------------------10---------10--------------10--10---8-----------------|
G|---------------------------------------------------------------------------|
D|---------------------------------------------------------------------------|
A|---------------------------------------------------------------------------|
E|---------------------------------------------------------------------------|


[Verse I]

Whoa!
Dm
I've been up in all my dreams
Dm
Screaming out in ecstasy
Dm
And now it's the reality
Dm          Bb     F
Something's coming over me

Dm
What you see is what you get
Dm
With fingers on the cigarette
Dm
You got a face I can't forget
Dm         Bb      F
But I've smoked my memory


[Bridge]

Am                                     Bb
I'm delving into another world that I found
       C
That I found


[Chorus]

F
Come on, come on and crank it up
            Eb
I want it louder, I want the winner's luck
         Dm
I see my future, inside that woman's touch
            C
That woman's touch, that woman's touch


[Verse II]

Dm
We were talking way to loud
Dm
But where we go we hit the ground
Dm
No one else will be allowed
Dm         Bb      F
You won't need to know the time

Dm
Evidently into you
Dm
I am gonna wait for you
Dm
But before the night is over
Dm         Bb      F
I'm gonna try and blow your mind
I'm gonna blow your mind!


[Bridge]

Am                                     Bb
I'm delving into another world that I found
       C
That I found


{Chorus]

F
Come on, come on and crank it up
            Eb
I want it louder, I want the winner's luck
         Dm
I see my future, inside that woman's touch
            C
That woman's touch, that woman's touch


[Breakdown]

G
I know when I'm moving
             Am          Am     G#m       G
I can feel it fall
G
I know what I'm doing
                C
You know I want more

Yeeeeah!


[Solo]

e|-------10--8--10--8------10--8------10--10--8------------------------------|
B|---------------------10---------10--------------10-------------------------|
 
e|-------8s10s8----10--8---------------------------------------------------|
B|------------------------10----10--8----------------------------------------|


[Chorus]

N.C.
Come on, come on and crank it up
          Eb
I want it louder, I want the winner's luck   ---------->  Play Intro 
        Dm
I see my future, inside that woman's touch
             C
That woman's touch, that woman's touch


[Refrain]

F
Woaah Woaah   -------------> Again play the intro
Eb
Woaah Woaah
Dm
Woaah Woaah 

Woaah Woaah
           C 
That woman's touch

That woman's touch

That woman's touch

            
            
Suggest correction
Creating personal tab
Creating personal tab
You can edit any tab online and save it as your Personal.

You can edit, replace or remove any tab part or add personal notes – all changes will be seen only by you.

Personal tabs can be accessed anytime from any device, even offline.
Learn more »
Give kudos to tab author, rate the tab!
1 2 3 4 5
comments
print report bad tab
guest
You may want to rate the tab now too:
select rating
Wanna post a correction for this tab? Suggest correction