Oops, an error
Loading. Please wait.

7 Things Tab

version 2
version 2

Whole song

Interactive

Video

181,652 views 54 this week
28 commentsread comments
1 2 3 4 5
x 63
add to favorites
launch autoscroll
font size
0
reset
how to read this tab
guitar tuner
Autoscroll
slow
fast
+/-
esc
set tempo
stop
Help us to improve Ultimate-Guitar.com Take our survey!
×
Difficulty
intermediate
[Intro]
e|---------|
B|---------|
G|-----9---|
D|-----9---|
A|-----7---|
E|-----x---|

[Verse 1]
e|---------------------------------------------------------------------|
B|---------------------------------------------------------------------|
G|-----9----------------------------------9----------------------------|
D|-----9----------------------------------9----------------------------|
A|-----7----------------------------------6----------------------------|
E|-----x----------------------------------x----------------------------|

  I probably shouldn't say this, But at times I get so scared
e|---------------------------------------------------------------------|
B|---------------------------------------------------------------------|
G|---------6-------------------------4---------------------------------|
D|---------6-------------------------4---------------------------------|
A|---------4-------------------------2---------------------------------|
E|---------x-------------------------x---------------------------------|

  When I think about the previous relationship we shared.
e|---------------------------------------------------------------------|
B|---------------------------------------------------------------------|
G|--------6--------------------------------8----------------------6----|
D|--------7--------------------------------9----------------------6----|
A|--------7--------------------------------9----------------------4----|
E|--------5--------------------------------7----------------------x----|

  It was awesome but we lost it. It's not possible for me not to care.
e|---------------------------------------------------------------------|
B|---------------------------------------------------------------------|
G|---------------9----------------------------8------------------------|
D|---------------7----------------------------9------------------------|
A|---------------7----------------------------9------------------------|
E|---------------5----------------------------7------------------------|

And now we're standing in the rain nothing's ever gonna change until you
e|-----------------|
B|-----------------|
G|---6------4------|
D|---6------4------|
A|---4------2------|
E|---x------x------|
   hear my dear

[Chorus]
e|---------------------------------------|
B|---------------------------------------|
G|---------------------------------9-9-6-|
D|---------------------------------9-9-6-|
A|---------------------------------7-6-4-|
E|---------------------------------x-x-x-|

  The seven things I hate about you
e|---------------------------------------------------------------------|
B|---------------------------------------------------------------------|
G|------4------------------------6-------8-----------------------------|
D|------4------------------------7-------9-----------------------------|
A|------2------------------------7-------9-----------------------------|
E|------x------------------------5-------7-----------------------------|

  The seven things I hate about you, oh you
e|---------------------------------------------------------------------|
B|---------------------------------------------------------------------|
G|-9---------------------9---------------6------------------4----------|
D|-9---------------------9---------------6------------------4----------|
A|-7---------------------6---------------4------------------2----------|
E|-x---------------------x---------------x------------------x----------|

     You're vain, your games you're insecure, you love me, you like her
e|---------------------------------------------------------------------|
B|---------------------------------------------------------------------|
G|---------9----------------------------8------------------------------|
D|---------7----------------------------9------------------------------|
A|---------7----------------------------9------------------------------|
E|---------5----------------------------7------------------------------|

  You make me laugh, you make me cry I don't know which side to buy.
e|---------------------------------------------------------------------|
B|---------------------------------------------------------------------|
G|-9-----------------------9------------------------6----------------4-|
D|-9-----------------------9------------------------6----------------4-|
A|-7-----------------------6------------------------4----------------2-|
E|-x-----------------------x------------------------x----------------x-|

     Your friends they're jerks When you act like them just know it hurts
e|------------------------------|
B|------------------------------|
G|----7-----------------------8-|
D|----7-----------------------9-|
A|----7-----------------------9-|
E|----5-----------------------7-|

  I wanna be with the one I know
e|-------------------------------------------------x-------------------|
B|-------------------------------------------------x-------------------|
G|---------6------------------------------------4--x-----------------9-|
D|---------6------------------------------------4--x-----------------9-|
A|---------4------------------------------------2--x-----------------7-|
E|---------x------------------------------------x--x-----------------x-|

 And the seventh thing I hate the most that you do, you make me love you

[Verse 2]
e|---------------------------------------------------------------------|
B|---------------------------------------------------------------------|
G|---------9-------------------------9---------------------------------|
D|---------9-------------------------9---------------------------------|
A|---------7-------------------------6---------------------------------|
E|---------x-------------------------x---------------------------------|

  It's awkward and its silent as I wait for you to say
e|---------------------------------------------------------------------|
B|---------------------------------------------------------------------|
G|--6----------------------------4-------------------------------------|
D|--6----------------------------4-------------------------------------|
A|--4----------------------------2-------------------------------------|
E|--x----------------------------x-------------------------------------|

  What I need to hear now your sincere apology
e|---------------------------------------------------------------------|
B|---------------------------------------------------------------------|
G|--------6--------------------------------8---------------------------|
D|--------7--------------------------------9---------------------------|
A|--------7--------------------------------9---------------------------|
E|--------5------------------------------- 7---------------------------|

 When you mean it I'll believe it If you text it I'll delete it
e|---------------------------------------------------------------------|
B|---------------------------------------------------------------------|
G|----------6------------------4------------------------------------6-4|
D|----------6------------------4------------------------------------6-4|
A|----------4------------------2------------------------------------4-2|
E|----------x------------------x------------------------------------x-x|
  Let's be clear oh, I'm not coming back, you're taking seven steps here

[Chorus]
e|---------------------------------------|
B|---------------------------------------|
G|---------------------------------9-9-6-|
D|---------------------------------9-9-6-|
A|---------------------------------7-6-4-|
E|---------------------------------x-x-x-|

  The seven things I hate about you
e|---------------------------------------------------------------------|
B|---------------------------------------------------------------------|
G|------4------------------------6-------8-----------------------------|
D|------4------------------------7-------9-----------------------------|
A|------2------------------------7-------9-----------------------------|
E|------x------------------------5-------7-----------------------------|

  The seven things I hate about you, oh you
e|---------------------------------------------------------------------|
B|---------------------------------------------------------------------|
G|-9---------------------9---------------6------------------4----------|
D|-9---------------------9---------------6------------------4----------|
A|-7---------------------6---------------4------------------2----------|
E|-x---------------------x---------------x------------------x----------|

     You're vain, your games you're insecure, you love me, you like her
e|---------------------------------------------------------------------|
B|---------------------------------------------------------------------|
G|---------9----------------------------8------------------------------|
D|---------7----------------------------9------------------------------|
A|---------7----------------------------9------------------------------|
E|---------5----------------------------7------------------------------|

  You make me laugh, you make me cry I don't know which side to buy.
e|---------------------------------------------------------------------|
B|---------------------------------------------------------------------|
G|-9-----------------------9------------------------6----------------4-|
D|-9-----------------------9------------------------6----------------4-|
A|-7-----------------------6------------------------4----------------2-|
E|-x-----------------------x------------------------x----------------x-|

     Your friends they're jerks When you act like them just know it hurts
e|------------------------------|
B|------------------------------|
G|----7-----------------------8-|
D|----7-----------------------9-|
A|----7-----------------------9-|
E|----5-----------------------7-|

  I wanna be with the one I know
e|-------------------------------------------------x-------------------|
B|-------------------------------------------------x-------------------|
G|---------6------------------------------------4--x-----------------9-|
D|---------6------------------------------------4--x-----------------9-|
A|---------4------------------------------------2--x-----------------7-|
E|---------x------------------------------------x--x-----------------x-|
 And the seventh thing I hate the most that you do, you make me love you

[Bridge]
e|---------------------------------------------------------------------|
B|---------------------------------------------------------------------|
G|--------9----------------------------------------9-------------------|
D|--------9----------------------------------------9-------------------|
A|--------7----------------------------------------6-------------------|
E|--------x----------------------------------------x-------------------|

  And compared to all the great things that would take too long to write
e|-----------------------------------------------|
B|-----------------------------------------------|
G|--6----------------------------4---------------|
D|--6----------------------------4---------------|
A|--4----------------------------2---------------|
E|--x----------------------------x---------------|
 I probably should mention the seven that I like

[Chorus 2]
e|---------------------------------------------------------------------|
B|---------------------------------------------------------------------|
G|-------------------------------9-------------------9---------------6-|
D|-------------------------------9-------------------9---------------6-|
A|-------------------------------7-------------------6---------------4-|
E|-------------------------------x-------------------x---------------x-|

  The seven things I like about you your hair, your eyes, your old levis
e|---------------------------------------------------------------------|
B|---------------------------------------------------------------------|
G|------------------4--------------6-----------------------------------|
D|------------------4--------------7-----------------------------------|
A|------------------2--------------7-----------------------------------|
E|------------------x--------------5-----------------------------------|

  When we kiss I'm hypnotized you make me laugh, you make me cry
e|-----------------------------------------|
B|-----------------------------------------|
G|--------8--------------------------------|
D|--------9--------------------------------|
A|--------9--------------------------------|
E|--------7--------------------------------|

  But I guess that's both I'll have to buy
e|---------------------------------------------------------------------|
B|---------------------------------------------------------------------|
G|-9--------------9----------------------6------------------4----------|
D|-9--------------9----------------------6------------------4----------|
A|-7--------------6----------------------4------------------2----------|
E|-x--------------x----------------------x------------------x----------|

    Your hand in mine. When we're intertwined everything's alright
e|------------------------------|
B|------------------------------|
G|----7-----------------------8-|
D|----7-----------------------9-|
A|----7-----------------------9-|
E|----5-----------------------7-|

  I wanna be with the one I know
e|-------------------------------------------------x-------------------|
B|-------------------------------------------------x-------------------|
G|---------6------------------------------------4--x-----------------9-|
D|---------6------------------------------------4--x-----------------9-|
A|---------4------------------------------------2--x-----------------7-|
E|---------x------------------------------------x--x-----------------x-|

 And the seventh thing I like the most that you do  you make me love you
e|------------------------------------|
B|------------------------------------|
G|-----9--------------6--------4------|
D|-----9--------------6--------4------|
A|-----6--------------4--------2------|
E|-----x--------------x--------x------|
  You do oh Ooh      ooh, ooh oh (fade)


************************************

| x  Dead note

************************************
Suggest correction
comments
print report bad tab
28 comments total. Showing first comments.
+1 reply
heyitsemilie 10 Jul 22, 2008 12:09 PM

hii i was wondering what the strumm pattern is? thanku

+1 reply
RoknRoLL90 10 Jul 22, 2008 01:35 PM

This tab is GREAT!!!! thanx. oh and uh heyitsemile, just listen to the song closely, you'll get it. ROCK ON!!!!

0 reply
huskers-13 10 Jul 25, 2008 06:00 PM

this tab is very accurate!!!!!!!!!!!!!!!!!!!!
and i watched your cover of it on youtube and invited us to be friends and you accepted!!!!!!!!!!!!!
yay
-hannah-
PeaceLoveJonas

guest
You may want to rate the tab now too:
select rating
Wanna post a correction for this tab? Suggest correction