Oops, an error
Loading. Please wait.

7 Things Bass Tab

version 3
version 3

Whole song

Interactive

1,101 views 1 this week
no commentswrite comment
1 2 3 4 5
please rate
add to favorites
launch autoscroll
font size
0
reset
guitar tuner
Autoscroll
slow
fast
+/-
esc
set tempo
stop
Help us to improve Ultimate-Guitar.com Take our survey!
×
Author
Difficulty
novice
Intro (in at 00:05)

G|--------|
D|--------|
A|--------|
E|-00--00-|

Verse

G|---------------------------------|
D|---------------------------------|
A|-7--6--4--2--0--2--4----20--2--4-|
E|---------------------------------|

Chorus

G|----------------------------------|x3
D|----------------------------------|x3
A|-77776666444422220000000022222222-|x3
E|----------------------------------|x3

G|---------|
D|---------|
A|----0--2-|
E|-4-------|

Post chorus

G|--------|
D|--------|
A|-00--00-|
E|--------|

Verse

G|------------------------------------|
D|------------------------------------|
A|-7--6--4--2--0--2--4--------0--2--4-|
E|------------------------3h4---------|

Chorus

G|----------------------------------|x2
D|----------------------------------|x2
A|-77776666444422220000000022222222-|x2
E|----------------------------------|x2

G|---------|
D|---------|
A|----0--2-|
E|-4-------|

Post chorus

G|--------|
D|--------|
A|-00--00-|
E|--------|

Chorus

G|----------------------------------|x2
D|----------------------------------|x2
A|-77776666444422220000000022222222-|x2
E|----------------------------------|x2

G|---------|
D|---------|
A|----0--2-|
E|-4-------|

Post chorus

G|--------|x2
D|--------|x2
A|-00--00-|x2
E|--------|x2

Ending

G|------------|x2
D|------------|x2
A|-0--2--4--4-|x2
E|------------|x2
Suggest correction
Give kudos to tab author, rate the tab!
1 2 3 4 5
comments
print report bad tab
guest
You may want to rate the tab now too:
select rating
Please do not post tabs as comments. Select "correction" instead!