Oops, an error
Loading. Please wait.

Breakout Tab

version 2
version 2

Whole song

Interactive

2,089 views 1 this week
no commentswrite comment
1 2 3 4 5
worth learning
x 2
add to favorites
launch autoscroll
font size
0
reset
how to read this tab
guitar tuner
Tab Pro tools
  • play this tab
  • loop segment
  • change instrument
  • show fretboard
  • metronome
Autoscroll
slow
fast
+/-
esc
set tempo
stop
Contributor
The following tabs are for the lyrics to the song "Breakout" by Miley Cyrus. It's 
a lot of fun playing the lyrics to this song. Have fun.

        INTRO
e|-----2---5-4-2----------2---5-4-2-0----------------------------------------|
B|-5-0---0---------0---5-0--0------------------------------------------------|
G|---------------------------------------------------------------------------|
D|---------------------------------------------------------------------------|
A|---------------------------------------------------------------------------|
E|---------------------------------------------------------------------------|

  EVERY WEEKS THE SAME, STUCK IN SCHOOLS SO LAME
e|0--0---2-----4---0-----0-----0---------------------------------------------|
B|----------------------------------2-----2--0-------------------------------|
G|---------------------------------------------------------------------------|
D|---------------------------------------------------------------------------|
A|---------------------------------------------------------------------------|
E|---------------------------------------------------------------------------|

  MY PARENTS SAY THAT I'M LAZY, GETTING UP AT 8 A.M.'S CRAZY
e|----0--0----0---0--------------0--0---0--2--5-5-4-----0-2------------------|
B|0--------------------2---20------------------------------------------------|
G|---------------------------------------------------------------------------|
D|---------------------------------------------------------------------------|
A|---------------------------------------------------------------------------|
E|---------------------------------------------------------------------------|

  TIRED OF BEING TOLD WHAT TO DO, SO UNFAIR, SO UNCOOL
e|-4-4--4---4-4---2----0----4--2---2-0-0-----2--0-0--------------------------|
B|---------------------------------------------------------------------------|
G|---------------------------------------------------------------------------|
D|---------------------------------------------------------------------------|
A|---------------------------------------------------------------------------|
E|---------------------------------------------------------------------------|

CHORUS BEGINS-THE DAYS TOO LONG AND I'M HOLDING ON, TIL I HEAR THE BELL RING
e|---------------------------------------4--2--------------7----7---4----2---|
B|-------------5---5----4---2---2----2----------4----4--4--------------------|
G|---------------------------------------------------------------------------|
D|---------------------------------------------------------------------------|
A|---------------------------------------------------------------------------|
E|---------------------------------------------------------------------------|

  'CAUSE THAT'S THE TIME WHEN WE'RE GONNA (TIME WHEN WE'RE GONNA)
e|--0-----2------0---7-----4---0----2--0----7----4-----0----2-0--------------|
B|---------------------------------------------------------------------------|
G|---------------------------------------------------------------------------|
D|---------------------------------------------------------------------------|
A|---------------------------------------------------------------------------|
E|---------------------------------------------------------------------------|

  BREAK OUT, LET THE PARTY START, WE'RE GONNA STAY OUT
e|--7----4----4---4--2--2----4-----0-----0-0---7----4------------------------|
B|---------------------------------------------------------------------------|
G|---------------------------------------------------------------------------|
D|---------------------------------------------------------------------------|
A|---------------------------------------------------------------------------|
E|---------------------------------------------------------------------------|

  GONNA BREAK SOME HEARTS. WE'RE GONNA DANCE 'TIL THE DANCE FLOOR FALLS APART
e|4--4----2----2-----4------0-----0-0----7-----7---7--4------4------2---24---|
B|---------------------------------------------------------------------------|
G|---------------------------------------------------------------------------|
D|---------------------------------------------------------------------------|
A|---------------------------------------------------------------------------|
E|---------------------------------------------------------------------------|

  UH OH, ALL OVER AGAIN. WE'RE GONNA WAKE UP, EVERYONE WE KNOW
e|-7--4--4----4-4--7-4-----0---2-0----7---4----44--2---2---4-----------------|
B|---------------------------------------------------------------------------|
G|---------------------------------------------------------------------------|
D|---------------------------------------------------------------------------|
A|---------------------------------------------------------------------------|
E|---------------------------------------------------------------------------|

  WE'RE GONNA HAVE SOME FUN GONNA LOSE CONTROL. IT FEELS SO GOOD,
e|-0-----0-0---7----7----7---7-0---2----2--4---------------------------------|
B|-----------------------------------------------4--4-----4---5--------------|
G|---------------------------------------------------------------------------|
D|---------------------------------------------------------------------------|
A|---------------------------------------------------------------------------|
E|---------------------------------------------------------------------------|

  TO LET GO 0H - 0H.   END CHORUS   
e|---------------------------------------------------------------------------|
B|5---5--7--4----2-----------------------------------------------------------|
G|---------------------------------------------------------------------------|
D|---------------------------------------------------------------------------|
A|---------------------------------------------------------------------------|
E|---------------------------------------------------------------------------|

  HANGIN OUT JUST SOMETHING WE LIKE TO DO. MY FRIENDS & THE MESS WE GET INTO,
e|-0--0---0---0-----0--0--------0---0----------------------------------------|
B|--------------------------2-----------2--2---2------2--0---2---0--2----00--|
G|---------------------------------------------------------------------------|
D|---------------------------------------------------------------------------|
A|---------------------------------------------------------------------------|
E|---------------------------------------------------------------------------|

  THESE ARE THE LESSONS THAT WE CHOOSE, NOT A BOOK FULL OF THINGS WE'LL  
e|---------------------------------------------------------------------------|
B|--5----5---5---5---5---4---4----2------2--0--2----0---0---2------0---------|
G|---------------------------------------------------------------------------|
D|---------------------------------------------------------------------------|
A|---------------------------------------------------------------------------|
E|---------------------------------------------------------------------------|

  NEVER USE.        REPEAT CHORUS (FROM "THE DAYS TOO LONG...)
e|---------------------------------------------------------------------------|
B|2-0----0-------------------------------------------------------------------|
G|---------------------------------------------------------------------------|
D|---------------------------------------------------------------------------|
A|---------------------------------------------------------------------------|
E|---------------------------------------------------------------------------|

  WISH IT WOULD NEVER END, SPENDING TIME WITH MY FRIENDS. OH WITH MY FRIENDS
e|---------------------------------------------------------4--5---4----2-----|
B|--4--4---4-----4-4---5----5--5-----2----2---2-----0------------------------|
G|---------------------------------------------------------------------------|
D|---------------------------------------------------------------------------|
A|---------------------------------------------------------------------------|
E|---------------------------------------------------------------------------|

                                        
e|-----2-0--5-4-2---------2-0--5-4-2-0---------------------------------------|
B|-5-0------------0---5-0----------------------------------------------------|
G|---------------------------------------------------------------------------|
D|---------------------------------------------------------------------------|
A|---------------------------------------------------------------------------|
E|---------------------------------------------------------------------------|

  THEN REPEAT CHORUS 2x's FROM  "BREAK OUT, LET THE PARTY START".
e|---------------------------------------------------------------------------|
B|---------------------------------------------------------------------------|
G|---------------------------------------------------------------------------|
D|---------------------------------------------------------------------------|
A|---------------------------------------------------------------------------|
E|---------------------------------------------------------------------------|
comments
We did not receive enough feedback on this tab! Please rate:
print report bad tab
1 2 3 4 5
I want to post or [tab]
guest
You may want to rate the tab now too:
select rating
Please do not post tabs as comments. Select "correction" instead!