Oops, an error
Loading. Please wait.

Butterfly Fly Away Tab

version 3
version 3

Interactive

100,602 views 6 this week
4 commentsread comments
1 2 3 4 5
accurate
x 6
add to favorites
launch autoscroll
font size
0
reset
how to read this tab
guitar tuner
Tab Pro tools
  • play this tab
  • loop segment
  • change instrument
  • show fretboard
  • metronome
×
Best way to learn
"Butterfly Fly Away"
Autoscroll
slow
fast
+/-
esc
set tempo
stop
Contributor
*Note to tab approver: this is an update to the tab I initially posted following a 
for the high guitar part. I attempted to upload it as a correction but there seems to be a 
limit. As such, would it be possible to replace it with this instead? Please 
remove this note as well, thanks!*

Miley Cyrus & Billy Ray Cyrus - Butterfly Fly Away
--------------------------------------------------

Album: Hannah Montana: The Movie (2009)
Track: 9

--------------------------------------------------

Tuning: Standard (EDAGBe)


### INTRO ### 00:00 ###
+++ PART 1 +++
e|------------------------|
B|------------------------|
G|---9-9--8-8--6-6--8-8---| 2x
A|---9-9--9-9--6-6--9-9---|
D|---7-7--6-6--4-4--6-6---|
E|------------------------|

+++ PART 2 +++
e|------14--------14--------14--------------11-12---|
B|---12---12---12---12---12---12---12--12-14--------|
G|-----------------------------------11-------------|
A|--------------------------------------------------|
D|--------------------------------------------------|
E|--------------------------------------------------|

 |---11--14--------14--------14---------------|
 |---------12---12---12---12---12---12---12---|
 |-------------------------------------11-----|
 |--------------------------------------------|
 |--------------------------------------------|
 |--------------------------------------------|


### VERSE ### 00:14 ###
+++ PART 1 +++
e|------------------------|      |--------------------------|
B|------------------------|      |--------------------------|
G|---9-9--8-8--6-6--8-8---| 7x   |---9-9--8-8--6-6--11-11---|
A|---9-9--9-9--6-6--9-9---|      |---9-9--9-9--6-6--11-11---|
D|---7-7--6-6--4-4--6-6---|      |---7-7--6-6--4-4--9--9----|
E|------------------------|      |--------------------------|

+++ PART 2 +++
e|------14--------14--------14--------14-----|
B|---12---12---12---12---12---12---12---12---|
G|-------------------------------------------|
A|-------------------------------------------|
D|-------------------------------------------|
E|-------------------------------------------|

 |------14--------14--------14--------------11-12---|
 |---12---12---12---12---12---12---12--12-14--------|
 |-----------------------------------11-------------|
 |--------------------------------------------------|
 |--------------------------------------------------|
 |--------------------------------------------------|

 |---11--14--------14--------14--------14-----|
 |---------12---12---12---12---12---12---12---|
 |--------------------------------------------|
 |--------------------------------------------|
 |--------------------------------------------|
 |--------------------------------------------|

 |------14--------14--------14--------------11-12---|
 |---12---12---12---12---12---12---12--12-14--------|
 |-----------------------------------11-------------|
 |--------------------------------------------------|
 |--------------------------------------------------|
 |--------------------------------------------------|

 |---11--14--------14--------14--------14-----|
 |---------12---12---12---12---12---12---12---|
 |--------------------------------------------|
 |--------------------------------------------|
 |--------------------------------------------|
 |--------------------------------------------|

 |------14--------14--------14-------------------------------|
 |---12---12---12---12---12---12--------12---12------12-14---|
 |---------------------------------11-11---11---11-11--------|
 |-----------------------------------------------------------|
 |-----------------------------------------------------------|
 |-----------------------------------------------------------|

 |---------14-----14----14-----14----------14----14------|
 |---12-12---12---12-12---12---12---12-----12-12-12-12---|
 |-------------------------------------------------------|
 |-------------------------------14---14-----------------|
 |-------------------------------------------------------|
 |-------------------------------------------------------|

 |---14----14----------------14----14----------------|
 |---12-12---12---12---------12-12---12---12---------|
 |-------------------11-11----------------11-11-11---|
 |---------------------------------------------------|
 |---------------------------------------------------|
 |---------------------------------------------------|


### CHORUS ### 01:12 ###
+++ PART 1 +++
e|-----------|----------------------------|
B|-----------|----------------------------|
G|-----------|----------------------------|
A|---9---6---|---9--8--6--4--3--3--4--4---|
D|---9---7---|---9--9--7--4--4--4--4--4---|
E|---7---4---|---7--6--4--2--1--1--2--2---|

e|-------------------|------------------------|
B|-------------------|------------------------|
G|-------------------|------------------------|
A|---9-9-9---6-6-6---|---9--8--6--4--3----4---|
D|---9-9-9---7-7-7---|---9--9--7--4--4----4---|
E|---7-7-7---4-4-4---|---7--6--4--2--1----2---|

+++ PART 2 +++
e|---------11-----11-----11-----------------------------------------|
B|---12--12-----12-----12---12--12---------12-----12------12--------|
G|-----11-----11-----11-------11-----13--13---13------13------13----|
A|-------------------------------------14-------14------14------14--|
D|------------------------------------------------------------------|
E|------------------------------------------------------------------|

 |---11------------------------------------------------------|
 |------------14-12-----12-12------12-14---14-14----12--11---|
 |----------11--------11-------11--------13-----13-----------|
 |--------13--------13-----------13--------------------------|
 |-----------------------------------------------------------|
 |-----------------------------------------------------------|

 |---------11-----11-----11-----------------------------------------|
 |---12--12-----12-----12---12--12---------12-----12------12--------|
 |-----11-----11-----11-------11-----13--13---13------13------13----|
 |-------------------------------------14-------14------14------14--|
 |------------------------------------------------------------------|
 |------------------------------------------------------------------|

 |---11--------------------------------------------|
 |------------14-12-----12-12------12-14-----------|
 |----------11--------11-------11-----------13-----|
 |--------13--------13-----------13------11---11---|
 |-------------------------------------------------|
 |-------------------------------------------------|


### INTRO ### 01:40 ###
+++ PART 1 +++
e|------------------------|
B|------------------------|
G|---9-9--8-8--6-6--8-8---|
A|---9-9--9-9--6-6--9-9---|
D|---7-7--6-6--4-4--6-6---|
E|------------------------|

+++ PART 2 +++
e|---------14-----------14------14-----14----------------11-12---|
B|---12-12---12---12-12-12-12---12--12-12-12---12---12-14--------|
G|------------------------------------------------11-------------|
A|---------------------------------------------------------------|
D|---------------------------------------------------------------|
E|---------------------------------------------------------------|


### VERSE ### 01:47 ###
+++ PART 1 +++
e|------------------------|      |-----------------------|
B|------------------------|      |-----------------------|
G|---9-9--8-8--6-6--8-8---| 3x   |---9-9--8-8--6-6--11---|
A|---9-9--9-9--6-6--9-9---|      |---9-9--9-9--6-6--11---|
D|---7-7--6-6--4-4--6-6---|      |---7-7--6-6--4-4--9----|
E|------------------------|      |-----------------------|

e|-----------------------|
B|-----------------------|
G|---9-9--8-8--6----11---|
A|---9-9--9-9--6----11---|
D|---7-7--6-6--4----9----|
E|-----------------------|

+++ PART 2 +++
e|---11---14--------14-----14-----14------14----------11-12---|
B|------12-----12-12--12---12--12-12-12---12--12-12-14--------|
G|------------------------------------------------------------|
A|------------------------------------------------------------|
D|------------------------------------------------------------|
E|------------------------------------------------------------|

 |---11--14---------14------14---------------------14------|
 |---------12---12--12-12---12--12-12-------12--12-12-11---|
 |---------------------------------11--11-13---------------|
 |---------------------------------------------------------|
 |---------------------------------------------------------|
 |---------------------------------------------------------|

 |---------14-----------14------14-----14----------------|
 |---12-12---12---12-12-12-12---12--12-12-12---12-12-----|
 |--------------------------------------------------11---|
 |-------------------------------------------------------|
 |-------------------------------------------------------|
 |-------------------------------------------------------|

 |----------------------------------------------------------|
 |---12-----12-----12------12-----12---12------------12-----|
 |-----11-11--11---11-11-11--11---11-11--11-----11-11--11---|
 |-----------------------------------------11---------------|
 |----------------------------------------------------------|
 |----------------------------------------------------------|

 |---------14-----------14--------------------------------|
 |---12-12--------12-12---------12--12--12---12--11--12---|
 |-----------11-----------11----------11------------------|
 |--------------------------------------------------------|
 |--------------------------------------------------------|
 |--------------------------------------------------------|


### OUTRO ### 02:23 ###
+++ PART 1 +++
e|------------------------|      |-------|
B|------------------------|      |-------|
G|---9-9--8-8--6-6--8-8---| 6x   |---9---|
A|---9-9--9-9--6-6--9-9---|      |---9---|
D|---7-7--6-6--4-4--6-6---|      |---7---|
E|------------------------|      |-------|

+++ PART 2 +++
e|--------14----------14----------14-----------------|
B|---12-12--12---12-12--12---12-12--12---12-12--12---|
G|--------------------------------------------11-----|
A|---------------------------------------------------|
D|---------------------------------------------------|
E|---------------------------------------------------|

 |--------14----------14----------14--------------11-12---|
 |---12-12--12---12-12--12---12-12--12---12--12-14--------|
 |-----------------------------------------11-------------|
 |--------------------------------------------------------|
 |--------------------------------------------------------|
 |--------------------------------------------------------|

 |---11--14----------14----------14-----------------14----------|
 |---------12---12-12--12---12-12-------12---12--12-12-12-11----|
 |---------------------------------11-13--------------------11--|
 |--------------------------------------------------------------|
 |--------------------------------------------------------------|
 |--------------------------------------------------------------|

 |--------11--14------------------------------------|
 |---12-14--12--12---12-12-12------12-12-12-14-12---|
 |-------------------------------11-----------------|
 |-----------------------------13-------------------|
 |--------------------------------------------------|
 |--------------------------------------------------|

 |--------14----------14----------14--------------11-12---|
 |---12-12--12---12-12--12---12-12--12---12--12-14--------|
 |-----------------------------------------11-------------|
 |--------------------------------------------------------|
 |--------------------------------------------------------|
 |--------------------------------------------------------|

 |---11--14--------------------14----------11---|
 |---------12---------------12---12---12-11-----|
 |--------------11--11-11-----------------------|
 |----------------------------------------------|
 |----------------------------------------------|
 |----------------------------------------------|

 |--------|
 |--------|
 |---11---|
 |--------|
 |--------|
 |--------|
comments
print report bad tab
4 comments total. Showing first comments.
0 reply
mileyjonasfan08 wrote on April 13 2009, 01:44 pm

bravo..well doneee

0 reply
mileyjonasfan08 wrote on April 13 2009, 06:38 pm

the only thing missing is a capo 5..other then that great!

0 reply
rylaicm wrote on April 21 2009, 06:28 am

good detail, most sounds accurate

I want to post or [tab]
guest
You may want to rate the tab now too:
select rating
Please do not post tabs as comments. Select "correction" instead!