Oops, an error
Loading. Please wait.

Butterfly Fly Away Tab

version 4
version 4

Interactive

179,362 views 21 this week
11 commentsread comments
1 2 3 4 5
accurate
x 24
add to favorites
launch autoscroll
font size
0
reset
how to read this tab
guitar tuner
Autoscroll
slow
fast
+/-
esc
set tempo
stop
Help us to improve Ultimate-Guitar.com Take our survey!
×
Contributor
Capo
4th fret
Butterfly Fly Away - Miley Cyrus
Hannah Montana Movie Soundtrack

Capo on 4

This song is off the new sountrack for the Hannah Montana movie and it's pretty 
simple! Alot of repeating the same few chords.
This is a video of Miley playing it acoustically.
http://www.youtube.com/watch?v=JX9zOG7-Pzs&feature=related
This video also helps show the strumming!

Intro
e|---3--3--3--3---------|
B|---3--3--3--3---------|    
G|---0--0--0--0---------|x2
D|---2--0--2--0---------|
A|---3--2--0--2---------|
E|---0--0--0--0---------|

Verse 1 + 2
e|---3--3--3--3---------|
B|---3--3--3--3---------|    
G|---0--0--0--0---------|x4
D|---2--0--2--0---------|
A|---3--2--0--2---------|
E|---0--0--0--0---------|

Verse 1:
You tucked me in, turned out the light 
kept me safe and sound at night 
Little girls depend on things like that 

Verse 2:
Brushed my teeth and combed my hair 
Had to drive me everywhere 
You were always there when I looked back 

Bridge
e|---3--3--3--3---------|
B|---3--3--3--3---------|    
G|---0--0--0--0---------|x4
D|---2--0--2--0---------|
A|---3--2--0--2---------|
E|---0--0--0--0---------|

Bridge:
You had to do it all alone 
Make a living, make a home 
Must've been as hard as it could be 

And when I couldn't sleep at night 
Scared things wouldn't turn out right 
You would hold my hand and sing to me

Chorus
e|---3--3--3--3--3--3--3--3----|
B|---3--3--3--3--3--3--3--3----|
G|---0--0--0--0--0--0--0--1----|x2
D|---0--2--0--0--0--0--2--0----|
A|---2--3--2--0--2--2--0--0----|
E|---3--0--3--2--0--0--0--0----|

Chorus:
Caterpillar in the tree 
How you wonder who you'll be 
Can't go far but you can always dream 

Wish you may and wish you might 
Don't you worry, hold on tight 
I promise you there will come a day 
Butterfly fly away 

Verse 3 + 4
e|---3--3--3--3---------|
B|---3--3--3--3---------|    
G|---0--0--0--0---------|x5
D|---2--0--2--0---------|
A|---3--2--0--2---------|
E|---0--0--0--0---------|

Verse 3:
Butterfly fly away (Butterfly fly away) 
Got your wings, now you can't stay 
Take those dreams and make them all come true 

Verse 4:
Butterfly fly away(Butterfly fly away) 
You've been waiting for this day 
All along and know just what to do 

Outro
e|---3--3--3--3---------|
B|---3--3--3--3---------|    
G|---0--0--0--0---------| Play till the end. End on ---3---
D|---2--0--2--0---------|                           ---3---  
A|---3--2--0--2---------|                           ---0---
E|---0--0--0--0---------|                           ---2---
                                                    ---3---
Outro:                                              ---0---
Butterfly, Butterfly, Butterfly 
Butterfly fly away 

Butterfly fly away 

Butterfly fly away

Suggest correction new What's this?
You can suggest a correction to this tab. Community and Mods will review your correction and vote to approve or reject it.
comments
print report bad tab
11 comments total. Showing first comments.
+2 reply
kintana 240 wrote on April 18 2009, 09:07 am

It sounds perfect for me :)
Thank you so much for this tab
5*

0 reply
rylaicm 16 wrote on April 21 2009, 06:28 am

sounds basic

+1 reply
emdawg08 93 wrote on April 21 2009, 07:52 pm

I am in the process of making an updated tab with a second guitar part but it'll take me a few days to submit so if you can figure it out this is just a short bit from the second guitar part that you basically repeat.

e|----14-------14-------14-------14-------14-------14-------14--|
B|-12----12-12----12-12----12-12----12-12----12-12----12-12-----|
G|--------------------------------------------------------------|
D|--------------------------------------------------------------|
A|--------------------------------------------------------------|
E|--------------------------------------------------------------|

e|---------------11-12-11-14-------14-------14-------14-------14--|
B|--12-12--12-14-------------12-12----12-12----12-12----12-12-----|
G|----------------------------------------------------------------|
D|----------------------------------------------------------------|
A|----------------------------------------------------------------|
E|----------------------------------------------------------------|

e|-------14-------14----------------11-12-11--------------------|
B|-12-12----12-12-----12-12--12--14-----------------------------|
G|--------------------------------------------------------------|
D|--------------------------------------------------------------|
A|--------------------------------------------------------------|
E|--------------------------------------------------------------|

guest
You may want to rate the tab now too:
select rating
Please do not post tabs as comments. Select "correction" instead!