Oops, an error
Loading. Please wait.

Butterfly Fly Away Tab

version 6
version 6

Interactive

72,031 views 264 this week
1 commentread comment
1 2 3 4 5
x 34
add to favorites
launch autoscroll
font size
0
reset
how to read this tab
guitar tuner
Autoscroll
slow
fast
+/-
esc
set tempo
stop
Help us to improve Ultimate-Guitar.com Take our survey!
×
Author
Capo
4th fret
[Intro]

e|-----3------------------3----------------3----------------3-----------|
B|-3-----3------------3-----3----------3-----3----------3-----3---------|
G|---0------------------0----------------0----------------0-------------|
D|----------------------------------------------------------------------|
A|-3-------3----------2-------2--------0-------0--------2-------2-------|
E|----------------------------------------------------------------------|

e|-----3------------------3----------------3----------------------------|
B|-3-----3------------3-----3----------3-----3----------3-----3---------|
G|---0------------------0----------------0-----------------0----0-------|
D|----------------------------------------------------------------------|
A|-3-------3----------2-------2--------0-------0--------2---------------|
E|----------------------------------------------------------------------|


[Verse]

  You tucked me in, turned out the light, kept me safe and sound at night
e|-----3------------------3----------------3----------------3-----------|
B|-3-----3------------3-----3----------3-----3----------3-----3---------|
G|---0------------------0----------------0----------------0-------------|
D|----------------------------------------------------------------------|
A|-3-------3----------2-------2--------0-------0--------2-------2-------|
E|----------------------------------------------------------------------|

  Little girls  depend on things like that
e|-----3------------------3----------------3----------------3-----------|
B|-3-----3------------3-----3----------3-----3----------3-----3---------|
G|---0------------------0----------------0----------------0-------------|
D|----------------------------------------------------------------------|
A|-3-------3----------2-------2--------0-------0--------2-------2-------|
E|----------------------------------------------------------------------|

  Brushed my teeth and combed my hair,   had to drive me everywhere
e|-----3------------------3----------------3----------------3-----------|
B|-3-----3------------3-----3----------3-----3----------3-----3---------|
G|---0------------------0----------------0----------------0-------------|
D|----------------------------------------------------------------------|
A|-3-------3----------2-------2--------0-------0--------2-------2-------|
E|----------------------------------------------------------------------|

  You were always there when i looked back              You had to
e|-----3------------------3----------------3----------------3-----------|
B|-3-----3------------3-----3----------3-----3----------3-----3---------|
G|---0------------------0----------------0----------------0-------------|
D|----------------------------------------------------------------------|
A|-3-------3----------2-------2--------0-------0--------2-------2-------|
E|----------------------------------------------------------------------|


   do  it   all   alone          make a living, make a home
e|-----3------------------3----------------3----------------3-----------|
B|-3-----3------------3-----3----------3-----3----------3-----3---------|
G|---0------------------0----------------0----------------0-------------|
D|----------------------------------------------------------------------|
A|-3-------3----------2-------2--------0-------0--------2-------2-------|
E|----------------------------------------------------------------------|

  Must've  been  as  hard  as it could be                   And when I
e|-----3------------------3----------------3----------------3-----------|
B|-3-----3------------3-----3----------3-----3----------3-----3---------|
G|---0------------------0----------------0----------------0-------------|
D|----------------------------------------------------------------------|
A|-3-------3----------2-------2--------0-------0--------2-------2-------|
E|----------------------------------------------------------------------|

  couldn't sleep at night, scared things wouldn't turn out right
e|-----3------------------3----------------3----------------3-----------|
B|-3-----3------------3-----3----------3-----3----------3-----3---------|
G|---0------------------0----------------0----------------0-------------|
D|----------------------------------------------------------------------|
A|-3-------3----------2-------2--------0-------0--------2-------2-------|
E|----------------------------------------------------------------------|

  You would hold my hand and sing to me
e|-----3------------------3----------------3----------------2-----------|
B|-3-----3------------3-----3----------3-----3----------3-----3---------|
G|---0------------------0----------------2----------------2-------------|
D|-------------------------------------0-------0--------0-------0-------|
A|-3-------3----------2-------2-----------------------------------------|
E|----------------------------------------------------------------------|


[Chorus]

  Caterpillar in the tree             How i wonder who you'll be
e|-----3------------------3----------------3----------------3-----------|
B|-3-----3------------3-----3----------3-----3----------3-----3---------|
G|---0------------------0----------------0----------------0-------------|
D|----------------------------------------------------------------------|
A|-------------------------------------3-------3------------------------|
E|-3-------3----------3-------3-------------------------3-------3-------|

  Can't go far but you can always     dream
e|-----3------------------3----------------3----------------2-----------|
B|-3-----3------------3-----3----------3-----3----------3-----3---------|
G|---0------------------0----------------2----------------2-------------|
D|-------------------------------------0-------0--------0-------0-------|
A|----------------------------------------------------------------------|
E|-3-------3----------3-------3-----------------------------------------|

  Wish you may and wish you might, don't you worry, hold on tight
e|-----3------------------3----------------3----------------3-----------|
B|-3-----3------------3-----3----------3-----3----------3-----3---------|
G|---0------------------0----------------0----------------0-------------|
D|----------------------------------------------------------------------|
A|-------------------------------------3-------3------------------------|
E|-3-------3----------3-------3-------------------------3-------3-------|

  I promise you  there  will  come a  day                 Butterfly fly
e|-----3------------------3----------------3----------------2-----------|
B|-3-----3------------3-----3----------3-----3----------3-----3---------|
G|---0------------------0----------------2----------------2-------------|
D|-------------------------------------0-------0--------0-------0-------|
A|----------------------------------------------------------------------|
E|-3-------3----------3-------3-----------------------------------------|

  away
e|-----3------------------3----------------3----------------3-----------|
B|-3-----3------------3-----3----------3-----3----------3-----3---------|
G|---0------------------0----------------0----------------0-------------|
D|----------------------------------------------------------------------|
A|-3-------3----------2-------2--------0-------0--------2-------2-------|
E|----------------------------------------------------------------------|


[Verse]

  Butterfly fly away                   Got your wings now you can't stay
e|-----3------------------3----------------3----------------3-----------|
B|-3-----3------------3-----3----------3-----3----------3-----3---------|
G|---0------------------0----------------0----------------0-------------|
D|----------------------------------------------------------------------|
A|-3-------3----------2-------2--------0-------0--------2-------2-------|
E|----------------------------------------------------------------------|

  Take those dreams and make them all come true
e|-----3------------------3----------------3----------------3-----------|
B|-3-----3------------3-----3----------3-----3----------3-----3---------|
G|---0------------------0----------------0----------------0-------------|
D|----------------------------------------------------------------------|
A|-3-------3----------2-------2--------0-------0--------2-------2-------|
E|----------------------------------------------------------------------|

  Butterfly fly away                   You've been waiting for this day
e|-----3------------------3----------------3----------------3-----------|
B|-3-----3------------3-----3----------3-----3----------3-----3---------|
G|---0------------------0----------------0----------------0-------------|
D|----------------------------------------------------------------------|
A|-3-------3----------2-------2--------0-------0--------2-------2-------|
E|----------------------------------------------------------------------|

  All along you've known just what to do
e|-----3------------------3----------------3----------------3-----------|
B|-3-----3------------3-----3----------3-----3----------3-----3---------|
G|---0------------------0----------------0----------------0-------------|
D|----------------------------------------------------------------------|
A|-3-------3----------2-------2--------0-------0--------2-------2-------|
E|----------------------------------------------------------------------|

  Butterfly          Butterfly         Butterfly        Butterfly fly
e|-----3------------------3----------------3----------------3-----------|
B|-3-----3------------3-----3----------3-----3----------3-----3---------|
G|---0------------------0----------------0----------------0-------------|
D|----------------------------------------------------------------------|
A|-3-------3----------2-------2--------0-------0--------2-------2-------|
E|----------------------------------------------------------------------|

  away
e|-----3------------------3----------------3----------------3-----------|
B|-3-----3------------3-----3----------3-----3----------3-----3---------|
G|---0------------------0----------------0----------------0-------------|
D|----------------------------------------------------------------------|
A|-3-------3----------2-------2--------0-------0--------2-------2-------|
E|----------------------------------------------------------------------|

  Butterfly fly away
e|-----3------------------3----------------3----------------3-----------|
B|-3-----3------------3-----3----------3-----3----------3-----3---------|
G|---0------------------0----------------0----------------0-------------|
D|----------------------------------------------------------------------|
A|-3-------3----------2-------2--------0-------0--------2-------2-------|
E|----------------------------------------------------------------------|


e|-----3------------------3----------------3----------------3-----------|
B|-3-----3------------3-----3----------3-----3----------3-----3---------|
G|---0------------------0----------------0----------------0-------------|
D|----------------------------------------------------------------------|
A|-3-------3----------2-------2--------0-------0--------2-------2-------|
E|----------------------------------------------------------------------|

e|-3---------|
B|-3---------|
G|-----------|
D|-----------|
A|-2---------|
E|-3---------|
Suggest correction
comments
print report bad tab
1 comment total.
+1 reply
alinanassyrov 10 Oct 25, 2016 02:11 PM

beautiful

guest
You may want to rate the tab now too:
select rating
Wanna post a correction for this tab? Suggest correction