Oops, an error
Loading. Please wait.

Dont Walk Away Tab

5,501 views 1 this week
no commentswrite comment
1 2 3 4 5
please rate
add to favorites
launch autoscroll
font size
0
reset
how to read this tab
guitar tuner
Autoscroll
slow
fast
+/-
esc
set tempo
stop
Help us to improve Ultimate-Guitar.com Take our survey!
×
Author
-------------------------------------------------------------------------------
                        'Don't Walk Away,' By Miley Cyrus
-------------------------------------------------------------------------------
Tabbed by:dez15
Email:vo_debra@hotmail.com

Tuning:Standard


Verse
e|---------------------------------------------------------------------------|
B|---------------------------------------------------------------------------|
G|----9-----6-----2-----4----------------------------------------------------|
D|----9-----6-----2-----4---x2-----------------------------------------------|
A|----7-----4-----0-----2----------------------------------------------------|
E|---------------------------------------------------------------------------|

Pre-Chorus
e|---------------------------------------------------------------------------|
B|---------------------------------------------------------------------------|
G|-----7-----4---------------------------------------------------------------|
D|-----7-----4---x2----------------------------------------------------------|
A|-----5-----2---------------------------------------------------------------|
E|---------------------------------------------------------------------------|

Chorus
e|---------------------------------------------------------------------------|
B|---------------------------------------------------------------------------|
G|-----9-----4------6-----2-----4--------------------------------------------|
D|-----9-----4------6-----2-----4---x4---------------------------------------|
A|-----7-----2------4-----0-----2--------------------------------------------|
E|---------------------------------------------------------------------------|

Bridge
e|---------------------------------------------------------------------------|
B|---------------------------------------------------------------------------|
G|-----4------2------9------4------7-----------------------------------------|
D|-----4------2------9------4------7-----------------------------------------|
A|-----2------0------7------2------5-----------------------------------------|
E|---------------------------------------------------------------------------|



| /  slide up
| \  slide down
| h  hammer-on
| p  pull-off
| ~  vibrato
| +  harmonic
| x  Mute note
===============================================================================
Suggest correction
Give kudos to tab author, rate the tab!
1 2 3 4 5
comments
print report bad tab
guest
You may want to rate the tab now too:
select rating
Please do not post tabs as comments. Select "correction" instead!