Oops, an error
Loading. Please wait.

Dream Tab

11,286 views 3 this week
6 commentsread comments
1 2 3 4 5
accurate
x 5
add to favorites
launch autoscroll
font size
0
reset
how to read this tab
guitar tuner
Autoscroll
slow
fast
+/-
esc
set tempo
stop
Help us to improve Ultimate-Guitar.com Take our survey!
×
Author
Miley Cyrus - Dream
---------------------------------------

Album: Hannah Montana: The Movie (2009)
Track: 7

---------------------------------------

Tuning: Standard (EDAGBe)


### INTRO ### 00:00 ###
+++ PART 1 +++
e|-----------------------------------------|
B|-----------------------------------------|
G|---9-9-9--77777--10101010--12-12-12-12---| 2x
A|---101010-77777--10101010--12-12-12-12---|
D|---7-7-7--55555--8-8-8-8---10-10-10-10---|
E|-----------------------------------------|
     ^------------- p.m. --------------^

+++ PART 2 +++
e|-------|
B|---R---|
G|---E---| 2x
A|---S---|
D|---T---|
E|-------|


### VERSE 1 ### 00:08 ###
+++ PART 1 +++
e|-----------------------------------------|
B|-----------------------------------------|
G|---9-9-9--77777--10101010--12-12-12-12---| 8x
A|---101010-77777--10101010--12-12-12-12---|
D|---7-7-7--55555--8-8-8-8---10-10-10-10---|
E|-----------------------------------------|
     ^------------- p.m. --------------^

+++ PART 2 +++
e|-------|
B|---R---|
G|---E---| 4x
A|---S---|
D|---T---|
E|-------|

e|-------8--8-8-------8-10p8---|
B|-----8------------8----------|
G|---9-----------10------------| 4x
A|-----------------------------|
D|-----------------------------|
E|-----------------------------|


### PRE-CHORUS ### 00:40 ###
+++ PART 1 +++
e|--------------------------|
B|--------------------------|
G|---------5555-------------| 2x
A|---7777--5555--55555555---|
D|---7777--3333--55555555---|
E|---5555--------33333333---|

+++ PART 2 +++
e|---0000--0000--33333333---|
B|---1111--1111--33333333---|
G|---2222--0000--00000000---| 2x
A|---2222--2222--00000000---|
D|---0000--3333--22222222---|
E|---xxxx--xxxx--33333333---|
      Am    C       G
     ^   single note    ^
     |--- variation ----|


### CHORUS ### 00:49 ###
+++ PART 1 +++
e|---------------------------|
B|---------------------------|
G|---------------------------| 4x
A|---3--5--7--10---5-5-5-5---|
D|---3--5--7--10---5-5-5-5---|
E|---1--3--5--8----3-3-3-3---|

+++ PART 2 +++
e|---8-8-10-8---8-8-7-7---|
B|------------------------|
G|------------------------| 4x
A|------------------------|
D|------------------------|
E|------------------------|


### PRE-VERSE ### 01:05 ###
+++ PART 1 +++
e|-----------------------------------------|
B|-----------------------------------------|
G|---9-9-9--77777--10101010--12-12-12-12---|
A|---101010-77777--10101010--12-12-12-12---|
D|---7-7-7--55555--8-8-8-8---10-10-10-10---|
E|-----------------------------------------|

+++ PART 2 +++
e|-------|
B|---R---|
G|---E---|
A|---S---|
D|---T---|
E|-------|


### VERSE 2 ### 01:09 ###
+++ PART 1 +++
e|-------0-----0----------1--------3---|
B|---------1-----1------1--------3-----|
G|-----0-----------------------0-------|
A|---2-------2--------3----------------|
D|-------------------------------------|
E|-------------------------------------|
          C             F        G

+++ PART 2 +++
e|-------8--8-8-------8-10p8---|
B|-----8------------8----------|
G|---9-----------10------------| 4x
A|-----------------------------|
D|-----------------------------|
E|-----------------------------|


### PRE-CHORUS ### 01:25 ###
+++ PART 1 +++
e|--------------------------|
B|--------------------------|
G|---------5555-------------| 2x
A|---7777--5555--55555555---|
D|---7777--3333--55555555---|
E|---5555--------33333333---|

+++ PART 2 +++
e|---0000--0000--33333333---|
B|---1111--1111--33333333---|
G|---2222--0000--00000000---| 2x
A|---2222--2222--00000000---|
D|---0000--3333--22222222---|
E|---xxxx--xxxx--33333333---|
      Am    C       G
     ^   single note    ^
     |--- variation ----|


### CHORUS ### 01:34 ###
+++ PART 1 +++
e|---------------------------|
B|---------------------------|
G|---------------------------| 4x
A|---3--5--7--10---5-5-5-5---|
D|---3--5--7--10---5-5-5-5---|
E|---1--3--5--8----3-3-3-3---|

+++ PART 2 +++
e|---8-8-10-8---8-8-7-7---|
B|------------------------|
G|------------------------| 4x
A|------------------------|
D|------------------------|
E|------------------------|


### BRIDGE ### 01:50 ###
+++ PART 1 +++
e|----------------------------------------------------|
B|----------------------------------------------------|
G|----------------------------------------------------| 2x
A|-----------------------5--7-9-10--9-7-5--7-9--------|
D|---3-5-7-8--7-5-3--5-7-----------------------7--5---|
E|----------------------------------------------------|

+++ PART 2 +++
e|-------|
B|---R---|
G|---E---|
A|---S---|
D|---T---|
E|-------|

e|----------------------------------------------------|
B|----------------------------------------------------|
G|----------------------------------------------------|
A|-----------------------5--7-9-10--9-7-5--7-9--------|
D|---3-5-7-8--7-5-3--5-7-----------------------7--5---|
E|----------------------------------------------------|


### SOLO ### 02:06 ###
+++ PART 1 +++
e|--------8---------------------------|----------------------------|
B|---8-10---10/8------------------8---|-------------------8h10p8---|
G|---------------10/9-7-9-7-5-7-9-----|---99-77-55-0/2/5-----------|
A|------------------------------------|----------------------------|
D|------------------------------------|----------------------------|
E|------------------------------------|----------------------------|

e|------------------------------------------------------------------|
B|---13-h15p13-h17p13-h15p13-h17p13-h15p13-h18p13-h17p13-15h17p15---|
G|------------------------------------------------------------------|
A|------------------------------------------------------------------|
D|------------------------------------------------------------------|
E|------------------------------------------------------------------|

 |---------------------------------------------|
 |---10h12p10-8h10p8-6-5-3-5-6-6--10\8--10\8---|
 |---------------------------------------------|
 |---------------------------------------------|
 |---------------------------------------------|
 |---------------------------------------------|

+++ PART 2 +++
e|-------|
B|---R---|
G|---E---| 4x
A|---S---|
D|---T---|
E|-------|


### PRE-CHORUS ### 02:23 ###
+++ PART 1 +++
e|--------------------------|      |--------------|
B|--------------------------|      |--------------|
G|---------5555-------------| 2x   |--------------|
A|---7777--5555--55555555---|      |---55555555---|
D|---7777--3333--55555555---|      |---55555555---|
E|---5555--------33333333---|      |---33333333---|

+++ PART 2 +++
e|---0000--0000--33333333---|      |---33333333---|
B|---1111--1111--33333333---|      |---33333333---|
G|---2222--0000--00000000---| 2x   |---00000000---|
A|---2222--2222--00000000---|      |---00000000---|
D|---0000--3333--22222222---|      |---22222222---|
E|---xxxx--xxxx--33333333---|      |---33333333---|
      Am    C       G                     G
     ^                single note             ^
     |--------------- variation --------------|


### CHORUS ### 02:32 ###
+++ PART 1 +++
e|---------------------------|
B|---------------------------|
G|---------------------------| 8x
A|---3--5--7--10---5-5-5-5---|
D|---3--5--7--10---5-5-5-5---|
E|---1--3--5--8----3-3-3-3---|

+++ PART 2 +++
e|---8-8-10-8---8-8-7-7---|
B|------------------------|
G|------------------------| 8x
A|------------------------|
D|------------------------|
E|------------------------|


### OUTRO ### 03:06 ###
+++ PART 1 +++
e|-------0-----0----------1--------3---|-------0-----0----------1-3---|
B|---------1-----1------1--------3-----|---------1-----1------1---3---|
G|-----0-----------------------0-------|-----0--------------------0---|
A|---2-------2--------3----------------|---2-------2--------3-----0---|
D|-------------------------------------|--------------------------2---|
E|-------------------------------------|--------------------------3---|
          C             F        G

+++ PART 2 +++
e|-------|----------|
B|---R---|---R------|
G|---E---|---E------|
A|---S---|---S--5---|
D|---T---|---T--5---|
E|-------|------3---|


Suggest correction
comments
print report bad tab
6 comments total. Showing first comments.
0 reply
Andrew Ong 70 wrote on April 8 2009, 02:07 am

I decided to try and tab two separate guitar parts so it can be played with a friend. If you're playing it alone feel free to mix and match :) If you have any issues with accuracy/readability/etc, please leave a comment so I can address these in the future, thanks!

0 reply
emdawg08 62 wrote on April 10 2009, 09:51 pm

### VERSE 1 ### 00:08 ###
+++ PART 1 +++
e|-----------------------------------------|
B|-----------------------------------------|
G|---9-9-9--77777--10101010--12-12-12-12---| 8x
A|---101010-77777--10101010--12-12-12-12---|
D|---7-7-7--55555--8-8-8-8---10-10-10-10---|
E|-----------------------------------------|

The -577-- just doesn't sound right. Maybe it was a typo?

0 reply
Andrew Ong 70 wrote on April 13 2009, 10:09 am

@emdawg08:

I agree it doesn't sound like a natural progression, -355-- at some point would've seemed appropriate but after listening to it a few times it seemed the recording reflects that. I could totally see it as

e|-----------------------------------------|
B|-----------------------------------------|
G|---9-9-9--77755--10101010--12-12-12-12---| 8x
A|---101010-77755--10101010--12-12-12-12---|
D|---7-7-7--55533--8-8-8-8---10-10-10-10---|
E|-----------------------------------------|

I listened to it a few more times to be sure, but it doesn't seem to be the case. However I did catch a minor point, there should be 3 -81010-- not 4 and 5 --101212-. Thanks.

guest
You may want to rate the tab now too:
select rating
Wanna post a correction for this tab? Suggest correction