Oops, an error
Loading. Please wait.

East Northumberland High Tab

4,605 views 1 this week
1 commentread comment
1 2 3 4 5
please rate
add to favorites
launch autoscroll
font size
0
reset
how to read this tab
guitar tuner
Autoscroll
slow
fast
+/-
esc
set tempo
stop
Help us to improve Ultimate-Guitar.com Take our survey!
×
Author
Difficulty
Tuning
intermediate
B E A D F# B
----------------------------------------------------------------------------
			     EAST NORTHUMBERLAND HIGH - Miley Cyrus
----------------------------------------------------------------------------
Tabbed by: Miko Del
Email: HANGINGJUDGE at GMAIL dot COM
Tuning: Standard
Notes: This tab is accurate for chord voicings and some additional fills.
Not all nuances, such as arpeggios and add'l parts, are written in.  LISTEN!

Intro and verses	"My problem isn't that I kissed you..."
  G-/D    A dim/Eb	  Riff before v.2
e|6----------8---------------------------------------------------------------|
B|8----------10---------------/22-20-------/20-------------------------------|
G|7----------8-----------------------19~\15---19/17/15/12~-------------------|
D|---------------------------------------------------------------------------|
A|---------------------------------------------------------------------------|
E|---------------------------------------------------------------------------|

Bridge to 1st chorus	"I figured out ..."
Ebsus2  Bb5   D7  G-	  Ebsus2   Bb5  D7
e|6-----------5--------------6----------5-------------------------------------|
B|6-----------7--------------6----------7-------------------------------------|
G|8-----------5---3----------8----------5-------------------------------------|
D|8-------8---7---5----------8------8---7-(Fancy Nancy fingering: 87--87--87--|
A|6-------8---5---5------5---6------8---5-------------------------------------|
E|--------6-------3--5-6------------6-----------------------------------------|

Chorus  "You're my type of guy, I guess ..." (2nd guitar plays arpeggios)
  Eb Bb    F  C-   Eb  Bb   F
e|---------------------------------------------------------------------------|
B|8-------10--8-----8-------10-----------------------------------------------|
G|8---7---10--8-----8---7---10-----------------------------------------------|
D|8---8---10--10----8---8---10-----------------------------------------------|
A|6---8---8---10----6---8---8------------------------------------------------|
E|----6-------8---------6----------------------------------------------------|

Chorus tag "Just because I liked you back then..."
  Bb5    F    Eb          Correct Strumming Rhythm:
e|------------------------1-----------------------------------|triplet 2triplet 3triplet 
1 & 2 & 3 & 4 &
B|-------10----8----------------------------------------------|
G|-------10----8----------/  -  /  /  /  /  /  -  /  /  /  / -|     /
D|-8-----10----8----------------------------------------------|
A|-8-----8-----6----------------------------------------------|
E|-6----------------------------------------------------------|

Ba bop ba ba's
  Bb  Bb/A  G-7	 Ebsus2
e|----------------------------------------------------------------------------|
B|3----3-----3----6-----------------------------------------------------------|
G|3----3-----3----8-----------------------------------------------------------|
D|3----3-----3----8-----------------------------------------------------------|
A|1----0-----x----6-----------------------------------------------------------|
E|-----------3----------------------------------------------------------------|

Quell (quiet part) "When you're standing near me..."
      D-  C-    D-  C-
e|----5---3-----5---3--------------------------------------------------------|
B|----6---4-----6---4--------------------------------------------------------|
G|----7---5-----7---5--------------------------------------------------------|
D|----7---5-----7---5--------------------------------------------------------|
A|----5---3-----5---3--------------------------------------------------------|
E|---------------------------------------------------------------------------|

Middle 8	"But when I take two steps away..."
EbMaj7sus2   Bbsus2   F	    Bb/F   F/A
e|----6---------1------------10-----13---------------------------------------|
B|----6---------1-----10-----11-----13---------------------------------------|
G|----7---------3-----10-----10-----14---------------------------------------|
D|----8---------3-----10-----------------------------------------------------|
A|----6---------1-----8------------------------------------------------------|
E|---------------------------------------------------------------------------|

Last Ba bop ba ba's
  Bb  Bb/A  G-7 Ebsus2	   (ends on EbMaj7sus2)
e|-------------------------------------6------------------------------------|
B|3----3-----3----6--------------------6------------------------------------|
G|3----3-----3----8--------------------8------------------------------------|
D|3----3-----3----8--------------------8------------------------------------|
A|1----0-----x----6--------------------6------------------------------------|
E|-----------3--------------------------------------------------------------|

| /  slide up
| \  slide down
| h  hammer-on
| p  pull-off
| ~  vibrato
| +  harmonic
| x  Mute note
===============================================================================
Suggest correction
Give kudos to tab author, rate the tab!
1 2 3 4 5
comments
print report bad tab
1 comment total.
0 reply
slash0r 709 wrote on July 15 2008, 01:58 pm

good job!

guest
You may want to rate the tab now too:
select rating
Please do not post tabs as comments. Select "correction" instead!