Oops, an error
Loading. Please wait.

Fly On The Wall Tab

version 3
version 3

Whole song

Interactive

4,032 views 1 this week
no commentswrite comment
1 2 3 4 5
2 more votes to show rating
add to favorites
launch autoscroll
font size
0
reset
how to read this tab
guitar tuner
Autoscroll
slow
fast
+/-
esc
set tempo
stop
Help us to improve Ultimate-Guitar.com Take our survey!
×
Author
-------------------------------------------------------------------------------
                             Fly on the Wall - Miley Cyrus
-------------------------------------------------------------------------------
Tabbed by: Jamie Callanan
Email: shamedog30@hotmail.com

Tuning: Standard

This is the main riff played throughout most of the song in the chorus and interlude parts

e|-------------------------------------------------------------------------|
B|-------------------------------------------------------------------------|
G|-------------------------------------------------------------------------|
D|-5-5-5-5-8-8-8-8-13-13-13-12---------------------------------------------|
A|-------------------------------------------------------------------------|
E|-3-3-3-3-6-6-6-6-11-11-11-10---------------------------------------------|


and then this bit later on in between bass riffs
e|-------------------------------------------------------------------------|
B|-------------------------------------------------------------------------|
G|-------------------------------------------------------------------------|
D|-5-5-3-5-----------------------------------------------------------------|
A|-3-3-1-3--------5-5-3-5--------------------------------------------------|
E|----------------3-3-1-3--------------------------------------------------|

thats it i think, no guitar in verse so just those 2 sections.
Suggest correction
Give kudos to tab author, rate the tab!
1 2 3 4 5
comments
print report bad tab
guest
You may want to rate the tab now too:
select rating
Wanna post a correction for this tab? Suggest correction