Oops, an error
Loading. Please wait.

Liberty Walk tab

version 1
version 1

Whole song

2,578 views 1 this week
no commentswrite comment
1 2 3 4 5
3 more votes to show rating
add to favorites
×
Save as Personal and add changes to this tab that will be seen only by you. Learn more ›
×
You can save this tab as Personal to edit and correct it or add notes. All changes will be seen only by you. Learn more »
launch autoscroll
font size
0
reset
how to read this tab
guitar tuner
edit
Autoscroll
slow
fast
+/-
esc
set tempo
stop
Author
Difficulty
-------------------------------------------------------------------------------
                             LIBERTY WALK - Miley Cyrus
-------------------------------------------------------------------------------
Tabbed by: Spence
Email: pointgodspence@hotmail.com

Tuning: Standard

Intro 1:

Don't live a lie, this is your one life ooh
Don't live it like you won't get lost
Just walk just
e|------------------------------------------------------------|
B|------------------------------------------------------------|
G|-3------------6------8-------------3------------------------|
D|-3------4-----6------8-------------3-----4-----3---4--------|
A|-1------4-----4------6-------------1-----4-----3---4--------|
E|--------2--------------------------------2-----1---2--------|

Intro 2:

Walk!
e|-----------------------------------------------------------------------|
B|-----------------------------------------------------------------------|
G|--11--10-----3------11--10-----3------11--10-----3------11--10--11--10-|
D|--11--10-----3------11--10-----3------11--10-----3------11--10--11--10-|
A|--9---8------1------9---8------1------9---8------1------9---8---9---8--|
E|-----------------------------------------------------------------------|

Chorus:


It's a liberty walk, it's a liberty walk
It's a liberty, liberty, liberty
It's a liberty walk, it's a liberty walk
It's a liberty, liberty, liberty
e|----------------------------------------------------------|
B|----------------------------------------------------------|
G|-3------------6------8------------------------------------|
D|-3------4-----6------8----6--6/8\-----4-----3---4--6--6---|
A|-1------4-----4------6----6--6/8\-----4-----3---4--6--6---|
E|--------2-----------------4--4/6\-----2-----1---2--4--4---|

Verse:

Here's to all the boys tryin to hold you back
Tryin to make you fell like your less than that
Got nothing more better than to make you crack
But really just tryin to put your dreams off track
And you know in the end it'll be okay
Cause all that really matters are the steps you take
And everything else falls into place
There's no price to pay, I say
e|----------------------------------------------------------|
B|----------------------------------------------------------|
G|-3------------6------8------------------------------------|
D|-3------4-----6------8----6--6/8\-----4-----3---4--6--6---|
A|-1------4-----4------6----6--6/8\-----4-----3---4--6--6---|
E|--------2-----------------4--4/6\-----2-----1---2--4--4---|

Bridge:


We're alright (alright) yeah, yeah (yeah, yeah)
We're gonna get it where we livin, livin
We're alright (alright) yeah, yeah (yeah, yeah)
We're gonna get it where we livin
Whoa whoa
e|----------------------------------------------------------|
B|----------------------------------------------------------|
G|-3------------6------8------------------------------------|
D|-3------4-----6------8----6--6/8\-----4-----3---4--6--6---|
A|-1------4-----4------6----6--6/8\-----4-----3---4--6--6---|
E|--------2-----------------4--4/6\-----2-----1---2--4--4---|

Chorus:

It's a liberty walk, walk say goodbye to the
People who tied you up
It's a liberty walk, walk
Feeling your heart again, breathing new oxygen
It's a liberty walk, walk free yourself, slam the door
Not a prisoner anymore
Liberty, liberty, li-li-liberty, liberty, li-li
It's a liberty walk (walk, walk)
e|----------------------------------------------------------|
B|----------------------------------------------------------|
G|-3------------6------8------------------------------------| X2
D|-3------4-----6------8----6--6/8\-----4-----3---4--6--6---| 
A|-1------4-----4------6----6--6/8\-----4-----3---4--6--6---|
E|--------2-----------------4--4/6\-----2-----1---2--4--4---|

Pre-Verse:

Don't stop, keep on walking it
Don't stop, keep on talking sh!t
Don't stop, keep on walking it
(walk, walk ....)
e|------------------------------------------------------------|
B|------------------------------------------------------------|
G|-3---------------3-------------3------------3--3--3--3------|
D|-3---------------3-------------3------------3--3--3--3------|
A|-1---------------1-------------1------------1--1--1--1------|
E|------------------------------------------------------------|

Verse:

Don't be afraid to make a move
It won't hurt you just do what you would
Born to do and everything works out right
Don't listen to all the people who hate
Cause all they do is make your mistakes
For ya, But they don't own ya
I just told ya
e|----------------------------------------------------------|
B|----------------------------------------------------------|
G|-3------------6------8------------------------------------|
D|-3------4-----6------8----6--6/8\-----4-----3---4--6--6---|
A|-1------4-----4------6----6--6/8\-----4-----3---4--6--6---|
E|--------2-----------------4--4/6\-----2-----1---2--4--4---|

Pre-Chorus:

Alright (alright) yeah, yeah (yeah, yeah)
We're gonna get it where we livin, livin
We're alright (alright) yeah, yeah (yeah, yeah)
We're gonna get it where we livin
Whoa whoaa
e|----------------------------------------------------------|
B|----------------------------------------------------------|
G|-3------------6------8------------------------------------|
D|-3------4-----6------8----6--6/8\-----4-----3---4--6--6---|
A|-1------4-----4------6----6--6/8\-----4-----3---4--6--6---|
E|--------2-----------------4--4/6\-----2-----1---2--4--4---|

Chorus:

It's a liberty walk, walk say goodbye to the
People who tied you up
It's a liberty walk, walk
Feeling your heart again, breathing new oxygen
It's a liberty walk, walk free yourself, slam the door
Not a prisoner anymore
Liberty, liberty, li-li-liberty, liberty, li-li
It's a liberty walk (walk, walk)
e|----------------------------------------------------------|
B|----------------------------------------------------------|
G|-3------------6------8------------------------------------| X2
D|-3------4-----6------8----6--6/8\-----4-----3---4--6--6---| 
A|-1------4-----4------6----6--6/8\-----4-----3---4--6--6---|
E|--------2-----------------4--4/6\-----2-----1---2--4--4---|


Post Chorus:

Don't stop, keep on walking it
Don't stop just walk this way
Don't stop, keep on talking sh!t
(Don't like, don't like, don't like, don't like)
Don't like what you do (walk)
Don't take the abuse (walk)
Move to the truth (walk)
Before come on that means you (walk)
e|------------------------------------------------------------|
B|------------------------------------------------------------|
G|-3---------------3-------------3------------3--3--3--3------| X2
D|-3---------------3-------------3------------3--3--3--3------|
A|-1---------------1-------------1------------1--1--1--1------|
E|------------------------------------------------------------|

Chorus:

It's a liberty walk, walk say goodbye to the
People who tied you up
It's a liberty walk, walk
Feeling your heart again, breathing new oxygen
It's a liberty walk, walk
Free yourself, slam the door not a prisoner anymore
Liberty, liberty, li-li-liberty, liberty, li-li
It's a liberty walk (walk, walk)
e|----------------------------------------------------------|
B|----------------------------------------------------------|
G|-3------------6------8------------------------------------| X2
D|-3------4-----6------8----6--6/8\-----4-----3---4--6--6---| 
A|-1------4-----4------6----6--6/8\-----4-----3---4--6--6---|
E|--------2-----------------4--4/6\-----2-----1---2--4--4---|

Outro:

Don't stop, keep on walking it
Don't stop, keep on talking sh!t
Don't stop, keep on walking it
(walk, walk, walk)
e|------------------------------------------------------------|
B|------------------------------------------------------------|
G|-3---------------3-------------3------------3--3--3--3------|
D|-3---------------3-------------3------------3--3--3--3------|
A|-1---------------1-------------1------------1--1--1--1------|
E|------------------------------------------------------------|

Great song, one of the best from Can't Be Tamed. Have fun playing it!

-Spence

Lyrics:

Don't live a lie, this is your one life ooh
Don't live it like you won't get lost
Just walk just walk

It's a liberty walk, it's a liberty walk
It's a liberty, liberty, liberty
It's a liberty walk, it's a liberty walk
It's a liberty, liberty, liberty

Here's to all the boys tryin to hold you back
Tryin to make you fell like your less than that
Got nothing more better than to make you crack
But really just tryin to put your dreams off track
And you know in the end it'll be okay
Cause all that really matters are the steps you take
And everything else falls into place
There's no price to pay, I say

We're alright (alright) yeah, yeah (yeah, yeah)
We're gonna get it where we livin, livin
We're alright (alright) yeah, yeah (yeah, yeah)
We're gonna get it where we livin
Whoa whoa

It's a liberty walk, walk say goodbye to the
People who tied you up
It's a liberty walk, walk
Feeling your heart again, breathing new oxygen
It's a liberty walk, walk free yourself, slam the door
Not a prisoner anymore
Liberty, liberty, li-li-liberty, liberty, li-li
It's a liberty walk (walk, walk)

Don't stop, keep on walking it
Don't stop, keep on talking sh!t
Don't stop, keep on walking it
(walk, walk ....)

Don't be afraid to make a move
It won't hurt you just do what you would
Born to do and everything works out right
Don't listen to all the people who hate
Cause all they do is make your mistakes
For ya, But they don't own ya
I just told ya

Alright (alright) yeah, yeah (yeah, yeah)
We're gonna get it where we livin, livin
We're alright (alright) yeah, yeah (yeah, yeah)
We're gonna get it where we livin
Whoa whoaa

It's a liberty walk, walk say goodbye to the
People who tied you up
It's a liberty walk, walk
Feeling your heart again, breathing new oxygen
It's a liberty walk, walk free yourself, slam the door
Not a prisoner anymore
Liberty, liberty, li-li-liberty, liberty, li-li
It's a liberty walk (walk, walk)

Don't stop, keep on walking it
Don't stop just walk this way
Don't stop, keep on talking sh!t
(Don't like, don't like, don't like, don't like)
Don't like what you do (walk)
Don't take the abuse (walk)
Move to the truth (walk)
Before come on that means you (walk)

It's a liberty walk, walk say goodbye to the
People who tied you up
It's a liberty walk, walk
Feeling your heart again, breathing new oxygen
It's a liberty walk, walk
Free yourself, slam the door not a prisoner anymore
Liberty, liberty, li-li-liberty, liberty, li-li
It's a liberty walk (walk, walk)

Don't stop, keep on walking it
Don't stop, keep on talking sh!t
Don't stop, keep on walking it
(walk, walk, walk)

************************************

| /   slide up
| \   slide down
| h   hammer-on
| p   pull-off
| ~   vibrato
| +   harmonic
| x   Mute note
| b   Bend
| pb  Pre-bend
| br  Bend release
| pbr Pre-bend release
| brb Bend release bend

************************************
Suggest correction
Creating personal tab
Creating personal tab
You can edit any tab online and save it as your Personal.

You can edit, replace or remove any tab part or add personal notes – all changes will be seen only by you.

Personal tabs can be accessed anytime from any device, even offline.
Learn more »
Give kudos to tab author, rate the tab!
1 2 3 4 5
comments
print report bad tab
guest
You may want to rate the tab now too:
select rating
Wanna post a correction for this tab? Suggest correction