Oops, an error
Loading. Please wait.
We have an official Party In The Usa tab made by UG professional guitarists. Check out the tab »
×
33,330 views 6 this week
no commentswrite comment
1 2 3 4 5
x 5
add to favorites
×
Save as Personal and add changes to this tab that will be seen only by you. Learn more ›
×
You can save this tab as Personal to edit and correct it or add notes. All changes will be seen only by you. Learn more »
launch autoscroll
font size
0
reset
how to read this tab
guitar tuner
backing track
0:00
0:00
edit
Autoscroll
slow
fast
+/-
esc
set tempo
stop
Hi guys! Dakota Wint here. Just tabbed out party in the USA by Miley Cyrus. This sounds 
to me! This is pretty fun to play if you can get the rhythm of it down! Enjoy! 
<-- takes request

e-----------9----6---9--9--9--6--6666-6-------------------------------------|
B---7-7-7----------7---------------------7--9-------------------------------|
G---------------------------------------------------------------------------|
D---------------------------------------------------------------------------|
A---------------------------------------------------------------------------|
E---------------------------------------------------------------------------|

So I put my hands up
They're playin' My Song
The butterflies fly away


e|--------------------------------------------------------------------------|
B|---77777--------77777------------------------------------------------ ----|
G|---------6------------6---------------------------------------------------|
D|--------------------------------------------------------------------------|
A|--------------------------------------------------------------------------|
E|--------------------------------------------------------------------------|

Noddin' my head like yeah
Movin' my hips like yeah

e-----------9----6---9--9--9--6--6666-6-------------------------------------|
B---7-7-7----------7---------------------7--9-------------------------------|
G---------------------------------------------------------------------------|
D---------------------------------------------------------------------------|
A---------------------------------------------------------------------------|
E---------------------------------------------------------------------------|

I got my hands up
They're playin' my song
I know I'm gonna be ok

e----11\9--6-----6h9p6(play twice)-------------------------------------------|
B-------------9------------------------------------------9--7----------------|
G----------------------------------------6-6-6-6-6-6-6----------------------|
D---------------------------------------------------------------------------|
A---------------------------------------------------------------------------|
E---------------------------------------------------------------------------|

Yeah It's a party in the USA
Yeah It's a party in the USA
Suggest correction
Creating personal tab
Creating personal tab
You can edit any tab online and save it as your Personal.

You can edit, replace or remove any tab part or add personal notes – all changes will be seen only by you.

Personal tabs can be accessed anytime from any device, even offline.
Learn more »
comments
print report bad tab
guest
Wanna post a correction for this tab? Suggest correction