Oops, an error
Loading. Please wait.

Right Here tab

version 1
version 1

Whole song

6,862 views 1 this week
2 commentsread comments
1 2 3 4 5
x 4
add to favorites
×
Save as Personal and add changes to this tab that will be seen only by you. Learn more ›
×
You can save this tab as Personal to edit and correct it or add notes. All changes will be seen only by you. Learn more »
launch autoscroll
font size
0
reset
how to read this tab
guitar tuner
edit
Autoscroll
slow
fast
+/-
esc
set tempo
stop
this sounds right im only a little unsure about the first cord of the chorus but it 
fine.

intro
    e--------------------------|
    a--5---5-------------------|
    d----6---------------------|
    g-7-7-7-7------------------|
    b--------------------------|
    e--------------------------|

 chorus
all you have to do...              ask me once...
   e-------------------------------------------------------------------|
   a-1010101010-------------------------1010101010---------------------|
   d-9-9-9-9-9--77777---------99999-----9-9-9-9-9-77777-77777----------|
   g-7-7-7-7-7--77777--77777--99999-----7-7-7-7-7-77777-77777-22222----|
   b------------55555--77777--77777---------------55555-77777-22222----|
   e-------------------55555----------------------------55555----------|
then repeat that once

            
            
Suggest correction
Creating personal tab
Creating personal tab
You can edit any tab online and save it as your Personal.

You can edit, replace or remove any tab part or add personal notes – all changes will be seen only by you.

Personal tabs can be accessed anytime from any device, even offline.
Learn more »
comments
print report bad tab
2 comments total.
0 reply
iluvjonasgurl 237 Feb 06, 2008 11:29 AM

WOW! THIS IS ABSOLUTELY AMAZING!!!! THANK YOU SOOOO MUCH!!!!!!! I LOVE THIS SONG AND APPRECIATE THE TAB SOOO MUCH!!!!!!!!!!!

0 reply
iluvjonasgurl 237 Feb 06, 2008 11:34 AM

I only have one small correction for ya.
intro
e---------------------------|
a---------------------------|
d----5-----5----------------|
g---6--5--6---6-------------|
b--7--7--7---7-7------------|
e---------------------------|

the six is so light it's hardly heard, but i noticed it while i was playing. this is an AMAZING tab and i dunno why nobody has tried it yet!!!!

guest
Wanna post a correction for this tab? Suggest correction