Oops, an error
Loading. Please wait.

Weve Got The Party With Us tab

5,540 views 6 this week
1 commentread comment
1 2 3 4 5
2 more votes to show rating
add to favorites
×
Save as Personal and add changes to this tab that will be seen only by you. Learn more ›
×
You can save this tab as Personal to edit and correct it or add notes. All changes will be seen only by you. Learn more »
launch autoscroll
font size
0
reset
how to read this tab
guitar tuner
edit
Autoscroll
slow
fast
+/-
esc
set tempo
stop
Author
Difficulty
-------------------------------------------------------------------------------
         WE'VE GOT THE PARTY - Jonas Brothers and Miley Cyrus
-------------------------------------------------------------------------------
Tabbed by:kaye
Email:kaynik94@comcast.net

Tuning:standard
*100% accurate!!!!also: the secound note in verses, you slide up to the next note.
listen to the song, you'll know what i mean. listen for strumming too.
intro: palm mute and strum
verse one:(kevin and nick are playing the same things in this song, just on
different beats.)
e|---------------------------------------------------------------------------|
B|---------------------------------------------------------------------------|
G|--------------------------------------7------------------------------------|
D|-5------------------------------------7---slide between here---------------|
A|-5------------------------------------5------------------------------------|
E|-3-------------------------------------------------------------------------|
  come on guys/ tell me what we're doin/were hanging round/ when we could be
 
e|---------------------------------------------------------------------------|
B|---------------------------------------------------------------------------|
G|------9--------3-----------------------------------------------------------|
D|------9--------5-----------------------x3----------------------------------|
A|------7--------3-----------------------------------------------------------|
E|---------------------------------------------------------------------------|
  all over the place/
the sun is shinin/jus the way we like it/let's get out of
this hallway/ show the world our face/
Pre-chorus:
e|---------------------------------------------------------------------------|
B|---------------------------------------------------------------------------|
G|-----------------------7---------------9-----------------------5-----------|
D|-----5-----------------7---------------9-----------------------5-----x2----|
A|-----5-----------------5---------------7-----------------------3-----------|
E|-----3---------------------------------------------------------------------|
it's friday but there's no where to go anywhee is cool/ cuz were not going home/ 
we can do amythng we wanna do/ it's all up to me and you/
chorus:
e|---------------------------------------------------------------------------|
B|---------------------------------------------------------------------------|
G|-----------------------7--------------------9----------------------5-------|
D|-----------5-----------7--------------------9----------------------5--x4---|
A|-----------5-----------5--------------------7----------------------3-------|
E|-----------3---------------------------------------------------------------|
  turn this park into a club/ the stars our light/ and the moon is a ball from 
above/ skateboard hills/ our ride so cool/ oh, look, everyone is waiting for 
us/anywhere we are/ any where we go/ every body knows/ we've got the party with
us/anywhere we are any where we go/ we got the party with us/
verse two:
e|---------------------------------------------------------------------------|
B|---------------------------------------------------------------------------|
G|--------------------------------------7------------------------------------|
D|-5------------------------------------7---slide between here---------------|
A|-5------------------------------------5------------------------------------|
E|-3-------------------------------------------------------------------------|
 radio/ let me be your dj/ i'll turn you up/ keep us movin/ 
e|---------------------------------------------------------------------------|
B|---------------------------------------------------------------------------|
G|------9--------3-----------------------------------------------------------|
D|------9--------5-----------------------x3----------------------------------|
A|------7--------3-----------------------------------------------------------|
E|---------------------------------------------------------------------------|
      till we're on a roll/
every one is dancin to thier own beat/ and letting go/ every body here's got 
soul/ 
Pre-chorus:
e|---------------------------------------------------------------------------|
B|---------------------------------------------------------------------------|
G|-----------------------7---------------9-----------------------5-----------|
D|-----5-----------------7---------------9-----------------------5-----x2----|
A|-----5-----------------5---------------7-----------------------3-----------|
E|-----3---------------------------------------------------------------------|
it's friday but there's no where to be/ we're kicking it together/ it's so 
good to be free/ we've got eachother and that's all we need/ the rest is up to 
you and me 
chorus:
e|---------------------------------------------------------------------------|
B|---------------------------------------------------------------------------|
G|-----------------------7--------------------9----------------------5-------|
D|-----------5-----------7--------------------9----------------------5--x4---|
A|-----------5-----------5--------------------7----------------------3-------|
E|-----------3---------------------------------------------------------------|
  turn this park into a club/ the stars our light/ and the moon is a ball from 
above/ skateboard hills/ our ride so cool/ oh, look, everyone is waiting for 
us/anywhere we are/ any where we go/ every body knows/ we've got the party with
us/anywhere we are any where we go/ we got the party with us/
Bridge:
e|---------------------------------------------------------------------------|
B|---------------------------------------------------------------------------|
G|---------------7-----------9------5--------x2------------------------------|
D|--5------------7-----------9------5----------------------------------------|
A|--5------------5-----------7------3----------------------------------------|
E|--3------------------------------------------------------------------------|
  life is for dreamers/ and i'm a believer/ that nothing can stand in our way
today/let's find a place to play/
chorus:
e|---------------------------------------------------------------------------|
B|---------------------------------------------------------------------------|
G|-----------------------7--------------------9----------------------5-------|
D|-----------5-----------7--------------------9----------------------5--x4---|
A|-----------5-----------5--------------------7----------------------3-------|
E|-----------3---------------------------------------------------------------|
  turn this park into a club/ the stars our light/ and the moon is a ball from 
above/ skateboard hills/ our ride so cool/ oh, look, everyone is waiting for 
us/anywhere we are/ any where we go/ every body knows/ we've got the party with
us/anywhere we are any where we go/ we got the party with us/
*fade the chorus

well, there it is! hope you loved it!!! peace out! luv, jonasgurl

            
            
Suggest correction
Creating personal tab
Creating personal tab
You can edit any tab online and save it as your Personal.

You can edit, replace or remove any tab part or add personal notes – all changes will be seen only by you.

Personal tabs can be accessed anytime from any device, even offline.
Learn more »
Give kudos to tab author, rate the tab!
1 2 3 4 5
comments
print report bad tab
1 comment total.
0 reply
sugaraddic 52 Mar 25, 2008 08:34 PM

You may want to recheck your tab, it doesn't match the song at all. I think your even in the wrong key... lol sorry. For the intro start with this:

E-------------------- ----------------
B-------------------- ----------------
G--4---9------------- ----------------
D--4---9---7--------- ---5---7--------
A--2---7---7--------- ---5---7--------
E----------5--------- ---3---5--------

guest
You may want to rate the tab now too:
select rating
Wanna post a correction for this tab? Suggest correction