Oops, an error
Loading. Please wait.

Brickwork tab

670 views 12 this week
no commentswrite comment
1 2 3 4 5
1 last vote to show rating
add to favorites
×
Save as Personal and add changes to this tab that will be seen only by you. Learn more ›
×
You can save this tab as Personal to edit and correct it or add notes. All changes will be seen only by you. Learn more »
launch autoscroll
font size
0
reset
how to read this tab
guitar tuner
edit
Autoscroll
slow
fast
+/-
esc
set tempo
stop
-------------------------------------------------------------------------------
                             Brickwork by Milk Teeth

-------------------------------------------------------------------------------
Tabbed by: Jack
E-mail: jack2001marshall@yahoo.co.uk

Tuning: Dropped D

Chord timings aren't accurate


VERSE (Becky)
e|---------------------------------------------------------------------------|
B|---------------------------------------------------------------------------|
G|----7----------------------------------------------------------------------|
D|----7---------------------------9------------------------------------------|
A|----5-(x32)---------------------9------------------------------------------|
D|----------------------000-------9-(x16)---------000------------------------| repeat x2

  all of the words...    they left a hole...


CHORUS (Josh)
e|---------------------------------------------------------------------------|
B|---------------------------------------------------------------------------|
G|---------------------------------------------------------------------------|
D|----4----------7---------3---------0---------------------------------------|
A|----4----------7---------3---------0---------------------------------------|
D|----4--(x12)---7--(x3)---3--(x6)---0--(x6)---------------------------------| repeat x4
  and it's my fault now...


then... 

Verse
Chorus
Verse
Bridge
Verse (only play once)


BRIDGE (Josh)
Just alternate between the two chords
e|---------------------------------------------------------------------------|
B|---------------------------------------------------------------------------|
G|-----7---------------------------------------------------------------------|
D|-----7-------------9-------------------------------------------------------|
A|-----5--(x8)-------9-------------------------------------------------------|
D|-------------------9--(x8)-------------------------------------------------|


I tabbed this by ear and it sounds right to me, feel free to fix

            
            
Suggest correction
Creating personal tab
Creating personal tab
You can edit any tab online and save it as your Personal.

You can edit, replace or remove any tab part or add personal notes – all changes will be seen only by you.

Personal tabs can be accessed anytime from any device, even offline.
Learn more »
Give kudos to tab author, rate the tab!
1 2 3 4 5
comments
print report bad tab
guest
You may want to rate the tab now too:
select rating
Wanna post a correction for this tab? Suggest correction