Oops, an error
Loading. Please wait.

Owning Your Okayness tab

91 views 12 this week
no commentswrite comment
1 2 3 4 5
3 more votes to show rating
add to favorites
×
Save as Personal and add changes to this tab that will be seen only by you. Learn more ›
×
You can save this tab as Personal to edit and correct it or add notes. All changes will be seen only by you. Learn more »
launch autoscroll
font size
0
reset
how to read this tab
guitar tuner
edit
Autoscroll
slow
fast
+/-
esc
set tempo
stop
this is one of my first tabs so its probably not entirely correct bu be sure to rate it 
and comment so i know how im doing and can improve it XD

[Intro and verse]
e|-------------------------------|
B|-------------------------------|
G|-------------------------------|
D|3-3-x-x-3-3-x-x-3-3-x-8--8-8-7-| (x12)
A|3-3-x-x-3-3-x-x-3-3-x-8--8-8-7-|
D|3-3-x-x-3-3-x-x-3-3-x-8--8-8-7-|

  but on the 12th time do this:
e|--------------------|
B|--------------------|
G|--------------------|
D|3-3-x-x-3-3-x-x-3-3-|
A|3-3-x-x-3-3-x-x-3-3-|
D|3-3-x-x-3-3-x-x-3-3-|

e|-----------------------------------------------------------------|
B|-----------------------------------------------------------------|
G|-----------------------------------------------------------------|
D|-3-3-3-3-3-3-3-3-8-8-8-8-8-8-8-8-1-1-1-1-1-1-1-1-3-3-3-3-3-3-3-3-| (x2)
A|-3-3-3-3-3-3-3-3-8-8-8-8-8-8-8-8-1-1-1-1-1-1-1-1-3-3-3-3-3-3-3-3-|
D|-3-3-3-3-3-3-3-3-8-8-8-8-8-8-8-8-1-1-1-1-1-1-1-1-3-3-3-3-3-3-3-3-|

theres a bit after the chorus that goes:

e|------------------------|
B|------------------------|
G|------------------------|
D|-3-3-x-x-3-3-x-x-3-3-x3-|
A|-3-3-x-x-3-3-x-x-3-3-x3-|
D|-3-3-x-x-3-3-x-x-3-3-x3-|

then the verse parts 8times

and then two choruses in a row but another guitar does this:

[Solo]
e|---------------------------------------------------------------------------|
B|-------------------------------/1010101086~86----/1010101086~86---56-------|
G|---------------------------------------------7~----------------7~----------|
D|-/777755353-----777755353--------------------------------------------------|
A|-----------5~------------5~------------------------------------------------|
D|---------------------------------------------------------------------------|

then an instumental part:

e|-----------------------------------|
B|-----------------------------------|
G|-----------------------------------|
D|-3-3-3-3-3-3-3-3-3-3-3-3-3-3-3-3-5-| (x4)
A|-3-3-3-3-3-3-3-3-3-3-3-3-3-3-3-3-5-|
D|-3-3-3-3-3-3-3-3-3-3-3-3-3-3-3-3-5-|

then another part:

e|-----------------------------------------------------------------------------|
B|-----------------------------------------------------------------------------|
G|-----------------------------------------------------------------------------|
D|-3-3----3-3----3-3--8---7----------------------------------------------------| (x4)
A|-3-3----3-3----3-3--8---7----------------------------------------------------|
D|-3-3----3-3----3-3--8---7----------------------------------------------------|
 PM.................

but on the 4th time do this:

e|------------------------------------------------------------------------|
B|------------------------------------------------------------------------|
G|------------------------------------------------------------------------|
D|3-3----3-3--17----------------------------------------------------------|
A|3-3----3-3--17----------------------------------------------------------|
D|3-3----3-3--17(im not 100%sure about this one, feel free to corect me---|
PM------------------------------------------------------------------------|

then the chorus again
then the outro is the same as the intro

************************************

| x   Dead note
| /   Slide up
| ~   Vibrato
| PM  Palm mute

************************************

            
            
Suggest correction
Creating personal tab
Creating personal tab
You can edit any tab online and save it as your Personal.

You can edit, replace or remove any tab part or add personal notes – all changes will be seen only by you.

Personal tabs can be accessed anytime from any device, even offline.
Learn more »
Give kudos to tab author, rate the tab!
1 2 3 4 5
comments
print report bad tab
guest
You may want to rate the tab now too:
select rating
Wanna post a correction for this tab? Suggest correction