Oops, an error
Loading. Please wait.

Cocoon Tab

version 1
version 1

Whole song

  • Based off the music video on Youtube, listen to fi... Show more
1,753 views 411 this week
no commentswrite comment
1 2 3 4 5
1 last vote to show rating
add to favorites
launch autoscroll
font size
0
reset
how to read this tab
guitar tuner
Autoscroll
slow
fast
+/-
esc
set tempo
stop
Help us to improve Ultimate-Guitar.com Take our survey!
×
Author
Difficulty
https://www.youtube.com/watch?v=6L06G4Qwo04

a lot of repetition ;)

[Used chords]
    Eb           Dm           Gm          Bb          F
e|--6------------5------------3------------6----------1----------------------|
B|--8------------6------------3------------6----------1----------------------|
G|--8------------7------------3------------7----------2----------------------|
D|--8------------7------------5------------8----------3----------------------|
A|--6------------5------------5------------8----------3----------------------|
E|----------------------------3------------6----------1----------------------|

[Intro]

[main riff]
    Eb           Dm           Gm          Bb
e|-------------5--------x------------3----6---------x------------------------|
B|--8-----8----6---6-6--x------3-----3----6---6-6---x------------------------|
G|--8-----8----7---7-7--x------3-----3----7---7-7---x------------------------|
D|--8-----8----7---7-7--x--0---5-----5----8---8-8---x--0---------------------| x 4
A|--6----------5---5-5--x--0---5----------8---8-8---x--0---------------------|
E|-------------------------0---3----------6---6-6------0---------------------|

[Verse]
    Eb           Dm           Gm          Bb
e|-------------5--------x------------3----6---------x------------------------|
B|--8-----8----6---6-6--x------3-----3----6---6-6---x------------------------|
G|--8-----8----7---7-7--x------3-----3----7---7-7---x------------------------|
D|--8-----8----7---7-7--x--0---5-----5----8---8-8---x--0-0-------------------| x 7
A|--6----------5---5-5--x--0---5----------8---8-8---x--0-0-------------------|
E|-------------------------0---3----------6---6-6------0-0-------------------|

    Eb           Dm           Gm          Gm
e|-------------5--------x------------3----3---------x------------------------|
B|--8-----8----6---6-6--x------3-----3----3---3-3---x------------------------|
G|--8-----8----7---7-7--x------3-----3----3---3-3---x------------------------|
D|--8-----8----7---7-7--x--0---5-----5----5---5-5---x--0---------------------| 
A|--6----------5---5-5--x--0---5----------5---5-5---x--0---------------------|
E|-------------------------0---3----------3---3-3------0---------------------|

    F                          F
e|--------1----1--------x-----------------1----------------------------------|
B|--1-----1----1---1-1--x------1-----1----1----------------------------------|
G|--2-----2----2---2-2--x------2-----2----2----------------------------------|
D|--3-----3----3---3-3--x--0-0-3-----3----3----------------------------------|
A|--3-----3----3---3-3--x--0-0-3-----3----3----------------------------------|
E|--1----------1---1-1--x--0-0-1----------1----------------------------------|

[Chorus]
e|----6--------5---------3-------/6------------------------------------------|
B|---8---8--------6---------3--------6---------------------------------------|
G|--8-------8\-------7---------3/-------7------------------------------------| x 11
D|---------------------------------------------------------------------------|
A|---------------------------------------------------------------------------|
E|---------------------------------------------------------------------------|

[Verse]
    Eb           Dm           Gm          Bb
e|-------------5--------x------------3----6---------x------------------------|
B|--8-----8----6---6-6--x------3-----3----6---6-6---x------------------------|
G|--8-----8----7---7-7--x------3-----3----7---7-7---x------------------------|
D|--8-----8----7---7-7--x--0---5-----5----8---8-8---x--0-0-------------------| x 7
A|--6----------5---5-5--x--0---5----------8---8-8---x--0-0-------------------|
E|-------------------------0---3----------6---6-6------0-0-------------------|

    Eb           Dm           Gm          Bb
e|-------------5--------x------------3----3---------x------------------------|
B|--8-----8----6---6-6--x------3-----3----3---3-3---x------------------------|
G|--8-----8----7---7-7--x------3-----3----3---3-3---x------------------------|
D|--8-----8----7---7-7--x--0---5-----5----5---5-5---x--0---------------------| 
A|--6----------5---5-5--x--0---5----------5---5-5---x--0---------------------|
E|-------------------------0---3----------3---3-3------0---------------------|

    F                          F
e|--------1----1--------x-----------------1----------------------------------|
B|--1-----1----1---1-1--x------1-----1----1----------------------------------|
G|--2-----2----2---2-2--x------2-----2----2----------------------------------|
D|--3-----3----3---3-3--x--0-0-3-----3----3----------------------------------|
A|--3-----3----3---3-3--x--0-0-3-----3----3----------------------------------|
E|--1----------1---1-1--x--0-0-1----------1----------------------------------|

[Chorus]
e|----6--------5---------3-------/6------------------------------------------|
B|---8---8--------6---------3--------6---------------------------------------|
G|--8-------8\-------7---------3/-------7------------------------------------| x 10
D|---------------------------------------------------------------------------|
A|---------------------------------------------------------------------------|
E|---------------------------------------------------------------------------|

[Bridge]
e|--------------------11-10------------------------------13------------------|
B|-------------11h13--------13-11------------11h13-13/15----13--11-----------|
G|--10h12--12----------------------10h12--12---------------------------------| x 8
D|---------------------------------------------------------------------------|
A|---------------------------------------------------------------------------|
E|---------------------------------------------------------------------------|

    Eb           Dm           Gm          Bb
e|-------------5--------x------------3----6---------x------------------------|
B|--8-----8----6---6-6--x------3-----3----6---6-6---x------------------------|
G|--8-----8----7---7-7--x------3-----3----7---7-7---x------------------------|
D|--8-----8----7---7-7--x--0---5-----5----8---8-8---x--0-0-------------------| x 2
A|--6----------5---5-5--x--0---5----------8---8-8---x--0-0-------------------|
E|-------------------------0---3----------6---6-6------0-0-------------------|

[Chorus]
e|----6--------5---------3-------/6------------------------------------------|
B|---8---8--------6---------3--------6---------------------------------------|
G|--8-------8\-------7---------3/-------7------------------------------------| x 8
D|---------------------------------------------------------------------------|
A|---------------------------------------------------------------------------|
E|---------------------------------------------------------------------------|

e|--------------------11-10------------------------------13------------------|
B|-------------11h13--------13-11------------11h13-13/15----13--11-----------|
G|--10h12--12----------------------10h12--12---------------------------------| x 4
D|---------------------------------------------------------------------------|
A|---------------------------------------------------------------------------|
E|---------------------------------------------------------------------------|

[Outro]
    Eb           Dm           Gm          Bb
e|-------------5--------x------------3----6---------x------------------------|
B|--8-----8----6---6-6--x------3-----3----6---6-6---x------------------------|
G|--8-----8----7---7-7--x------3-----3----7---7-7---x------------------------|
D|--8-----8----7---7-7--x--0---5-----5----8---8-8---x--0---------------------| 
A|--6----------5---5-5--x--0---5----------8---8-8---x--0---------------------|
E|-------------------------0---3----------6---6-6------0---------------------|

    Eb           Dm           Gm          Gm
e|-------------5--------x------------3----3---------x------------------------|
B|--8-----8----6---6-6--x------3-----3----3---3-3---x------------------------|
G|--8-----8----7---7-7--x------3-----3----3---3-3---x------------------------|
D|--8-----8----7---7-7--x--0---5-----5----5---5-5---x--0---------------------| 
A|--6----------5---5-5--x--0---5----------5---5-5---x--0---------------------|
E|-------------------------0---3----------3---3-3------0---------------------|

    F                          F
e|--------1----1--------x-----------------1----------------------------------|
B|--1-----1----1---1-1--x------1-----1----1----------------------------------|
G|--2-----2----2---2-2--x------2-----2----2----------------------------------|
D|--3-----3----3---3-3--x--0-0-3-----3----3----------------------------------|
A|--3-----3----3---3-3--x--0-0-3-----3----3----------------------------------|
E|--1----------1---1-1--x--0-0-1----------1----------------------------------|

************************************

| x   Dead note
| h   Hammer-on
| /   Slide up
| \   Slide down

************************************
Suggest correction
Give kudos to tab author, rate the tab!
1 2 3 4 5
comments
print report bad tab
guest
You may want to rate the tab now too:
select rating
Wanna post a correction for this tab? Suggest correction