Oops, an error
Loading. Please wait.

Cocoon Tab

version 2
version 2

Whole song

  • Based off the music video on Youtube, listen to fi... Show more
208 views 48 this week
no commentswrite comment
1 2 3 4 5
1 last vote to show rating
add to favorites
launch autoscroll
font size
0
reset
how to read this tab
guitar tuner
Autoscroll
slow
fast
+/-
esc
set tempo
stop
Help us to improve Ultimate-Guitar.com Take our survey!
×
Author
Difficulty
intermediate
[Intro]
(Guitar 1)
       Eb      Dm         Gm      Bb
e|---6-6-----5--5-5-x-|---3-3-----6--6-6-x-|
B|---8-8-----6--6-6-x-|---3-3-----6--6-6-x-|
G|---8-8-----7--7-7-x-|---3-3-----7--7-7-x-|
D|---8-8-----7--7-7-x-|---5-5-----8--8-8-x-|
A|---6-6-----5--5-5-x-|---5-5-----8--8-8-x-| x4
E|------------------x-|---3-3-----6--6-6-x-|

[Verse 1]
(Guitar 1)
       Eb      Dm         Gm      Bb
e|---6-6-----5--5-5-x-|---3-3-----6--6-6-x-|
B|---8-8-----6--6-6-x-|---3-3-----6--6-6-x-|
G|---8-8-----7--7-7-x-|---3-3-----7--7-7-x-|
D|---8-8-----7--7-7-x-|---5-5-----8--8-8-x-|
A|---6-6-----5--5-5-x-|---5-5-----8--8-8-x-| x7
E|------------------x-|---3-3-----6--6-6-x-|

[Pre-chorus]
(Guitar 1)
       Eb      Dm         Gm                  F
e|---6-6-----5--5-5-x--|--3--3-3---3--3-3-x--|--1--1-1-----1--1-1--|---1--1-1-----1---1---|
B|---8-8-----6--6-6-x--|--3--3-3---3--3-3-x--|--1--1-1-----1--1-1--|---1--1-1-----1---1---|
G|---8-8-----7--7-7-x--|--3--3-3---3--3-3-x--|--2--2-2-----2--2-2--|---2--2-2-----2---2---|
D|---8-8-----7--7-7-x--|--5--5-5---5--5-5-x--|--3--3-3-----3--3-3--|---3--3-3-----3---3---|
A|---6-6-----5--5-5-x--|--5--5-5---5--5-5-x--|--3--3-3-----3--3-3--|---3--3-3-----3---3---|
E|------------------x--|--3--3-3---3--3-5-x--|--1--1-1-----1--1-1--|---1--1-1-----1---1---|

[Chorus 1]
(Guitar 1)
       Eb      Dm         Gm      Bb
e|---6-6-----5--5-5-x-|---3-3-----6--6-6-x-|
B|---8-8-----6--6-6-x-|---3-3-----6--6-6-x-|
G|---8-8-----7--7-7-x-|---3-3-----7--7-7-x-|
D|---8-8-----7--7-7-x-|---5-5-----8--8-8-x-|
A|---6-6-----5--5-5-x-|---5-5-----8--8-8-x-| x10
E|------------------x-|---3-3-----6--6-6-x-|

[Chorus 1]
(Guitar 2)
e|-------------5------|----------------------|
B|-----8---------6----|--8-------11----------|
G|-------8---------7--|----7--------10-------|
D|---------8\7-------7|--8---8/12------12----|
A|--------------------|----------------------| x11
E|--------------------|----------------------|

[Verse 2]
(Guitar 1)
       Eb      Dm         Gm      Bb
e|---6-6-----5--5-5-x-|---3-3-----6--6-6-x-|
B|---8-8-----6--6-6-x-|---3-3-----6--6-6-x-|
G|---8-8-----7--7-7-x-|---3-3-----7--7-7-x-|
D|---8-8-----7--7-7-x-|---5-5-----8--8-8-x-|
A|---6-6-----5--5-5-x-|---5-5-----8--8-8-x-| x7
E|------------------x-|---3-3-----6--6-6-x-|

[Pre-chorus] 
(Guitar 1)
       Eb      Dm         Gm                  F
e|---6-6-----5--5-5-x--|--3--3-3---3--3-3-x--|--1--1-1-----1--1-1--|---1--1-1-----1---1---|
B|---8-8-----6--6-6-x--|--3--3-3---3--3-3-x--|--1--1-1-----1--1-1--|---1--1-1-----1---1---|
G|---8-8-----7--7-7-x--|--3--3-3---3--3-3-x--|--2--2-2-----2--2-2--|---2--2-2-----2---2---|
D|---8-8-----7--7-7-x--|--5--5-5---5--5-5-x--|--3--3-3-----3--3-3--|---3--3-3-----3---3---|
A|---6-6-----5--5-5-x--|--5--5-5---5--5-5-x--|--3--3-3-----3--3-3--|---3--3-3-----3---3---|
E|------------------x--|--3--3-3---3--3-5-x--|--1--1-1-----1--1-1--|---1--1-1-----1---1---|

[Chorus 2]
(Guitar 1)
       Eb      Dm         Gm      Bb
e|---6-6-----5--5-5-x-|---3-3-----6--6-6-x-|
B|---8-8-----6--6-6-x-|---3-3-----6--6-6-x-|
G|---8-8-----7--7-7-x-|---3-3-----7--7-7-x-|
D|---8-8-----7--7-7-x-|---5-5-----8--8-8-x-|
A|---6-6-----5--5-5-x-|---5-5-----8--8-8-x-| x10
E|------------------x-|---3-3-----6--6-6-x-|

[Chorus 2]
(Guitar 2)
e|-------------5------|----------------------|
B|-----8---------6----|--8-------11----------|
G|-------8---------7--|----7--------10-------|
D|---------8\7-------7|--8---8/12------12----|
A|--------------------|----------------------| x10
E|--------------------|----------------------|

[Bridge] 
(Guitar 2)
e|---------------------------|----------------13-----------|
B|---------11h13--16-15-13-11|--------11h13/15---13\11-----|
G|--12--12-------------------|-12--12----------------------|
D|---------------------------|-----------------------------|
A|---------------------------|-----------------------------| x4
E|---------------------------|-----------------------------|

[Bridge]
(Guitar 1, comes in after 2 repeats of the riff)
       Eb      Dm         Gm      Bb
e|---6-6-----5--5-5-x-|---3-3-----6--6-6-x-|
B|---8-8-----6--6-6-x-|---3-3-----6--6-6-x-|
G|---8-8-----7--7-7-x-|---3-3-----7--7-7-x-|
D|---8-8-----7--7-7-x-|---5-5-----8--8-8-x-|
A|---6-6-----5--5-5-x-|---5-5-----8--8-8-x-| x4
E|------------------x-|---3-3-----6--6-6-x-|

[Chorus 3] 
(Guitar 1)
       Eb      Dm         Gm      Bb
e|---6-6-----5--5-5-x-|---3-3-----6--6-6-x-|
B|---8-8-----6--6-6-x-|---3-3-----6--6-6-x-|
G|---8-8-----7--7-7-x-|---3-3-----7--7-7-x-|
D|---8-8-----7--7-7-x-|---5-5-----8--8-8-x-|
A|---6-6-----5--5-5-x-|---5-5-----8--8-8-x-| x14
E|------------------x-|---3-3-----6--6-6-x-|

[Chorus 3]
(Guitar 2)
e|-------------5------|----------------------|
B|-----8---------6----|--8-------11----------|
G|-------8---------7--|----7--------10-------|
D|---------8\7-------7|--8---8/12------12----|
A|--------------------|----------------------|x8
E|--------------------|----------------------|

(comes in after 4 repeats of first riff)
e|---------------------------|----------------13-----------|
B|---------11h13--16-15-13-11|--------11h13/15---13\11-----|
G|--12--12-------------------|-12--12----------------------|
D|---------------------------|-----------------------------|
A|---------------------------|-----------------------------| x4
E|---------------------------|-----------------------------|

[Outro]
(Guitar 1)
       Eb      Dm         Gm                  F
e|---6-6-----5--5-5-x--|--3--3-3---3--3-3-x--|--1--1-1-----1--1-1--|---1--1-1-----1---1---|
B|---8-8-----6--6-6-x--|--3--3-3---3--3-3-x--|--1--1-1-----1--1-1--|---1--1-1-----1---1---|
G|---8-8-----7--7-7-x--|--3--3-3---3--3-3-x--|--2--2-2-----2--2-2--|---2--2-2-----2---2---|
D|---8-8-----7--7-7-x--|--5--5-5---5--5-5-x--|--3--3-3-----3--3-3--|---3--3-3-----3---3---|
A|---6-6-----5--5-5-x--|--5--5-5---5--5-5-x--|--3--3-3-----3--3-3--|---3--3-3-----3---3---|
E|------------------x--|--3--3-3---3--3-5-x--|--1--1-1-----1--1-1--|---1--1-1-----1---1---|


************************************

| x  Dead note
| /  Slide up
| \  Slide down
| h  Hammer-on

************************************
Suggest correction
Give kudos to tab author, rate the tab!
1 2 3 4 5
comments
print report bad tab
guest
You may want to rate the tab now too:
select rating
Wanna post a correction for this tab? Suggest correction