Oops, an error
Loading. Please wait.
We have an official Down By The River tab made by UG professional guitarists. Check out the tab »
×

Down By The River tab

version 4
version 4

Whole song

Interactive

996 views 6 this week
no commentswrite comment
1 2 3 4 5
x 3
add to favorites
×
Save as Personal and add changes to this tab that will be seen only by you. Learn more ›
×
You can save this tab as Personal to edit and correct it or add notes. All changes will be seen only by you. Learn more »
launch autoscroll
font size
0
reset
how to read this tab
guitar tuner
edit
Autoscroll
slow
fast
+/-
esc
set tempo
stop
Author
Difficulty
-------------------------------------------------------------------------------
                             Down By The River - Milky Chance
                                  FULL SONG (with Lyrics)
-------------------------------------------------------------------------------

Please rate and enjoy!!

Tabbed by: oliverthompson5
E-mail: oliverthompson596@gmail.com

Tuning: Standard                             
                                                     
  The tab just follows these chords;                 
                                                       
         F#m  A    E    Bm
     e|--2----5----0----2----|
     B|--2----5----0----3----|
     G|--2----6----1----4----|
     D|--4----7----2----4----|
     A|--4----7----2----2----|
     E|--2----5----0----2----|

   **Interlude:** F#m

e|--------------------------------------------------------------|
B|--------------------------------------------------------------|
G|-----2------2------2------2------2-------2------2------2------|
D|----4------4------4------4------4-------4------4------4-------|
A|----------4-------------4--------------4-------------4--------|
E|---2-------------2-------------2--------------2---------------|


   **CHORUS 1 :**

       F#m                 A                   E                   Bm
e|-------------------------------------------------------------------------------------|   /
B|------------------------------------------------------------------3----3----3----3---|  /
G|-----2----2----2----2----6----6----6----6----1----1----1----1----4----4----4----4----| x3
D|----4----4----4----4----7----7----7----7----2----2----2----2---------4---------4-----|  \
A|--------4---------4---------7---------7---------2---------2----2----------2----------|   \
E|---2---------2---------5---------5---------0---------0-------------------------------|    \

    **Last line of Chorus 1:**
       
       F#m                 A                   E                    Bm pick          Bm strum
e|-------------------------------------------------------------------------------------2----|
B|------------------------------------------------------------------3----3----3----3---3----|
G|-----2----2----2----2----6----6----6----6----1----1----1----1----4----4----4----4----4----|
D|----4----4----4----4----7----7----7----7----2----2----2----2----4----4----4----4-----4----|
A|--------4---------4---------7---------7---------2---------2--------------------------2----|
E|---2---------2---------5---------5---------0---------0-------------------------------2----|

  (Then do two slaps on the fretboards with your right hand if you want it to sound like the song)

       **PRE-CHORUS / First Riff:**

       F#m                 A                   E                   Bm
e|-------------------------------------------------------------------------------------|   /
B|------------------------------------------------------------------3----3----3----3---|  /
G|-----2----2----2----2----6----6----6----6----1----1----1----1----4----4----4----4----| x2
D|----4----4----4----4----7----7----7----7----2----2----2----2---------4---------4-----|  \
A|--------4---------4---------7---------7---------2---------2----2----------2----------|   \
E|---2---------2---------5---------5---------0---------0-------------------------------|    \

       **CHORUS 2 :**

      F#m                 A                   E                   Bm
e|----------------------------------------------------------------2----2----2----2-----|   /
B|----2----2----2----2----6----6----6----6----0----0----0----0----3----3----3----3-----|  /
G|----2----2----2----2----6----6----6----6----1----1----1----1----4----4----4----4---- | x4
D|----4----4----4----4----7----7----7----7----2----2----2----2--------4---------4------|  \
A|--------4---------4---------7---------7---------2---------2----2---------2-----------|   \
E|---2---------2---------5---------5---------0---------0-------------------------------|    \

         oOOOHHHh ... Down by the river ...etc...

         For this section, Play through the chords at the same speed as the picking
                       ******FOUR TIMES******
         And on the FOURTH chord of the FOURTH repeat, just play the Bm for FOUR
          more beats!!


       **CHORUS 3 :**

      Follow the chorus (pattern 1) and repeat Four times

    THEN...        oOOOHHHh ... oOOOHHHh


e|-----5---5---5---5-----9----9----9----9---7---7---7---7---7---7---7---7----|   /
B|----7---7---7---7----10---10---10---10---9---9---9---9---7---7---7---7-----|  /
G|---6---6---6---6---11---11---11---11----9---9---9---9---7---7---7---7------| x4
D|---------------------------------------------------------------------------|  \
A|---------------------------------------------------------------------------|   \
E|---------------------------------------------------------------------------|    \

    Finishing Riff thingy...

  F#m                 A                   E                   Bm
e|-------------------------------------------------------------------------------------|   /
B|------------------------------------------------------------------3----3----3----3---|  /
G|-----2----2----2----2----6----6----6----6----1----1----1----1----4----4----4----4----| x2
D|----4----4----4----4----7----7----7----7----2----2----2----2---------4---------4-----|  \
A|--------4---------4---------7---------7---------2---------2----2----------2----------|   \
E|---2---------2---------5---------5---------0---------0-------------------------------|    \

  ***And to finish off, just give Bm a long strum and let it sound out!

  END

**********************************************
Feel free to drop a comment or give any advice
**********************************************

            
            
Suggest correction
Creating personal tab
Creating personal tab
You can edit any tab online and save it as your Personal.

You can edit, replace or remove any tab part or add personal notes – all changes will be seen only by you.

Personal tabs can be accessed anytime from any device, even offline.
Learn more »
Give kudos to tab author, rate the tab!
1 2 3 4 5
comments
print report bad tab
guest
You may want to rate the tab now too:
select rating
Wanna post a correction for this tab? Suggest correction