Oops, an error
Loading. Please wait.

Ego tab

151 views 27 this week
no commentswrite comment
1 2 3 4 5
3 more votes to show rating
add to favorites
×
Save as Personal and add changes to this tab that will be seen only by you. Learn more ›
×
You can save this tab as Personal to edit and correct it or add notes. All changes will be seen only by you. Learn more »
launch autoscroll
font size
0
reset
how to read this tab
guitar tuner
edit
Autoscroll
slow
fast
+/-
esc
set tempo
stop
About this tab version
TABs for "Ego", contains rhythm and lead guitar. Was this info helpful? Yes No
Key: Em
Tuning: Standard (EADGBe)

           C6         Dmaj               Em         Gmaj
Strumming: D D MD U | U U MD U U MD | D D MD U | U U MD U U MD

high e string notes are optional here
[Intro/Verses] [Guitar 1]
    C6      D        Em       G
e|---8------7---------7-------7--|
B|--10------7---------8-------8--|
G|---9------7---------9-------7--|
D|--10------7---------9-------9--|
A|---x------x---------x-------x--|
E|---x------x---------x-------x--|

[Pre-Chorus] [Guitar 1]
e|----------------|----------------|---------------|---------------|
B|---8---10----8--|--10---12---10--|--8---10----8--|--8---10----8--|
G|---9----9----9--|--11---11---11--|--9----9----9--|--7----7----7--|
D|--10---10---10--|--12---12---12--|--9----9----9--|--9----9----9--|
A|----------------|----------------|---------------|---------------|
E|----------------|----------------|---------------|---------------|

[Pre-Chorus] [Guitar 2]
For the first 8 bars of the pre-chorus, only the last two bars of this riff are played.
e|---------------------|---------------------|------------------|-------------|
B|------8-----8h10-8---|-----10---10h12-10---|-----8---7h8--7---|---8--7h8-7--|
G|----9-------------9--|---11-------------11-|---9------------7-|--7--------7-|
D|-10------------------|-12------------------|-9----------------|-9-----------|
A|---------------------|---------------------|------------------|-------------|
E|---------------------|---------------------|------------------|-------------|

[Verse 2] [Guitar 1]
This plays for 8 bars in the beginning of verse 2, and then goes back to the original voicings at the top.
Pluck this with fingers.
e|--------------|---------|-------------|---------|
B|--------------|---------|-------------|---------|
G|--------------|---------|--0-0--3--4--|--4-4-4--|
D|--2--2--3--4--|--4-4-4--|--2-2--4--5--|--5-5-5--|
A|--3--3--4--5--|--5-5-4--|-------------|---------|
E|--------------|---------|-------------|---------|

[Pre-Chorus 2]
e|------------|-----------|-----------|--------------|
B|------------|-----------|-----------|--------------|
G|------------|-----------|-----------|--------------|
D|----2--2----|---4--4----|---5--5----|----9---9-----|
A|---3--3-3---|--5--5-5---|--7--7-7---|--10--10-10---|
E|--3--3---3--|-5--5---5--|-7--7---7--|-10--10---10--|

(In the live shows before 2017, they used to play this as this outro:
https://www.youtube.com/watch?v=zZfj3r57ixc @ 4:27)
e|---8---8--x---8--|----------------------|------------|--7--7--x--7--7--x--|
B|--10--10--x--10--|-12--12--x--12--12--x-|-8--9--x--8-|--8--8--x--8--8--x--|
G|---9---9--x---9--|-11--11--x--11--11--x-|-9--9--x--9-|--7--7--x--7--7--x--|
D|--10--10--x--10--|-12--12--x--12--12--x-|-9--9--x--9-|--9--9--x--9--9--x--|
A|-----------------|----------------------|------------|--------------------|
E|-----------------|----------------------|------------|--------------------|


************************************

| x  Dead note
| h  Hammer-on

************************************
Suggest correction
Creating personal tab
Creating personal tab
You can edit any tab online and save it as your Personal.

You can edit, replace or remove any tab part or add personal notes – all changes will be seen only by you.

Personal tabs can be accessed anytime from any device, even offline.
Learn more »
Give kudos to tab author, rate the tab!
1 2 3 4 5
comments
print report bad tab
guest
You may want to rate the tab now too:
select rating
Wanna post a correction for this tab? Suggest correction