Oops, an error
Loading. Please wait.

Where Is My Mind Tab

version 1
version 1

Whole song

3,778 views 132 this week
7 commentsread comments
1 2 3 4 5
x 8
add to favorites
launch autoscroll
font size
0
reset
how to read this tab
guitar tuner
×
Best way to learn
"Where Is My Mind"
Autoscroll
slow
fast
+/-
esc
set tempo
stop
Author
Difficulty
Tuning
  follow
novice
D G C F A D
----------------------------------------------------------------- 
Where Is My Mind - Milkey Chance 
----------------------------------------------------------------- 
Tabbed by: Alex Perkins 
Tuning: 1 step down (D, G, C, F, A, d) 


Timings for this video: https://youtu.be/-YlxofoOnuY

I have not tabbed the solo, however I can if enough people want/need it.


Intro
0:21
e|---------------------------------------------------------------|
B|----5----------------------------------------------------------|
G|-1--6--5--6----------------------------------------------------|
D|-2--6--6--7----------------------------------------------------|
A|-2--4--6--7----------------------------------------------------|
E|-0-----4--5----------------------------------------------------|

Main Riff:
0:55
e|--4------------5--7--5-----------------------------------------|
B|--5--5---------5--6--5-----------------------------------------|
G|--4--6--5--6---6--6--6-----------------------------------------|
D|-----6--6--7---------------------------------------------------|
A|--------6--7---------------------------------------------------|
E|---------------------------------------------------------------|

Bridge:
1:52
e|---------------------------------------------------------------|
B|--------------5--4---------------------------------------------|
G|--1--4--6--5--6--4---------------------------------------------|
D|--2--6--7--7--6--4---------------------------------------------|
A|--2--6--7--7--4--2---------------------------------------------|
E|--0--4--5--5---------------------------------------------------|

Due to popular demand here is the solo tabbed:
I managed to do this in half an hour so sorry if its a tiny bit off,
mostly listen to for timing but all the noes should be right. 

3:15
e|-------------------------------------------------------------|
B|---------------------------9----9----9---9b------------------|
G|---------------------------11--11---11---11b-----13-11---14-13
D|----------------9----9h11---------------------11-------11----|
A|-----7---7h9/11---11-----------------------------------------|
E|-7h9---9-----------------------------------------------------|

3:21
e|---------------------------------------------------------------|
B|-----------------9--9--9--9b---------13-11----14-13----------|
G|--------9---9h11-11-11-11-11b--9/--11------11----------------|
D|---9h11---11-------------------------------------------------|
A|---------------------------------------------------------------|
E|---------------------------------------------------------------|

3:27                                      3:30 - Repeat this lick 3 times
e|---------------------------------------|-----------------------|
B|-----------12----12----12h14b-12-14----|-----12----------------|
G|-1/--11h13----13----13--------------13-|-/13----13-11----------|
D|---------------------------------------|--------------13-11----|
A|---------------------------------------|-----------------------|
E|---------------------------------------|-----------------------|

3:34 - He strums each chord but listen to the song
e|---------------------------------------------------------------|
B|-12--13--14---17-----------------------------------------------|
G|-13--13--13---16-----------------------------------------------|
D|---------------------------------------------------------------|
A|---------------------------------------------------------------|
E|---------------------------------------------------------------|

For everyone else who plays in Standard tuning here is the alternative way to play it.

Intro:
D/Bm/F#/G

Main Riff:
D/Bm/F#/G

e|---------------3--5--3-----------------------------------------|
B|--7--3---------3--3--3-----------------------------------------|
G|--7--4--3--4---4--4--4-----------------------------------------|
D|--7--4--4--5---------------------------------------------------|
A|--5--2--4--5---------------------------------------------------|
E|--------2--3---------------------------------------------------|


Bridge:
D/F#/G/Gm/Bm/A





| /  slide up
| \  slide down
| h  hammer-on
| p  pull-off
| ~  vibrato
| +  harmonic
| x  Mute note
Suggest correction
comments
print report bad tab
7 comments total. Showing first comments.
0 reply
AaronMorrison 10 Oct 17, 2016 02:51 PM

Thank you so much, I've been trying to learn this on my own but I've been Feeling really frustrated

0 reply
AaronMorrison 10 Oct 17, 2016 02:51 PM

Thank you so much, I've been trying to learn this on my own but I've been Feeling really frustrated

+1 reply
KingofChance47 10 Oct 22, 2016 02:14 AM

Great tab
I'd really appreciate a solo tab please!
Thank you!

guest
You may want to rate the tab now too:
select rating
Wanna post a correction for this tab? Suggest correction