Oops, an error
Loading. Please wait.

Where Is My Mind Tab

790 views 114 this week
4 commentsread comments
1 2 3 4 5
x 3
add to favorites
launch autoscroll
font size
0
reset
how to read this tab
guitar tuner
Autoscroll
slow
fast
+/-
esc
set tempo
stop
Help us to improve Ultimate-Guitar.com Take our survey!
×
Author
Difficulty
Tuning
novice
D G C F A D
----------------------------------------------------------------- 
Where Is My Mind - Milkey Chance 
----------------------------------------------------------------- 
Tabbed by: Alex Perkins 
Tuning: 1 step down (D, G, C, F, A, d) 


Timings for this video: https://youtu.be/-YlxofoOnuY

I have not tabbed the solo, however I can if enough people want/need it.


Intro
0:21
e|---------------------------------------------------------------|
B|----5----------------------------------------------------------|
G|-1--6--5--6----------------------------------------------------|
D|-2--6--6--7----------------------------------------------------|
A|-2--4--6--7----------------------------------------------------|
E|-0-----4--5----------------------------------------------------|

Main Riff:
0:55
e|--4------------5--7--5-----------------------------------------|
B|--5--5---------5--6--5-----------------------------------------|
G|--4--6--5--6---6--6--6-----------------------------------------|
D|-----6--6--7---------------------------------------------------|
A|--------6--7---------------------------------------------------|
E|---------------------------------------------------------------|

Bridge:
1:52
e|---------------------------------------------------------------|
B|--------------5--4---------------------------------------------|
G|--1--4--6--5--6--4---------------------------------------------|
D|--2--6--7--7--6--4---------------------------------------------|
A|--2--6--7--7--4--2---------------------------------------------|
E|--0--4--5--5---------------------------------------------------|

For everyone else who plays in Standard tuning here is the alternative way to play it.

Intro:
D/Bm/F#/G

Main Riff:
D/Bm/F#/G

e|---------------3--5--3-----------------------------------------|
B|--7--3---------3--3--3-----------------------------------------|
G|--7--4--3--4---4--4--4-----------------------------------------|
D|--7--4--4--5---------------------------------------------------|
A|--5--2--4--5---------------------------------------------------|
E|--------2--3---------------------------------------------------|


Bridge:
D/F#/G/Gm/Bm/A



| /  slide up
| \  slide down
| h  hammer-on
| p  pull-off
| ~  vibrato
| +  harmonic
| x  Mute note
Suggest correction
Give kudos to tab author, rate the tab!
1 2 3 4 5
comments
print report bad tab
4 comments total. Showing first comments.
0 reply
AaronMorrison 10 Oct 17, 2016 06:51 PM

Thank you so much, I've been trying to learn this on my own but I've been Feeling really frustrated

0 reply
AaronMorrison 10 Oct 17, 2016 06:51 PM

Thank you so much, I've been trying to learn this on my own but I've been Feeling really frustrated

0 reply
KingofChance47 10 Oct 22, 2016 06:14 AM

Great tab
I'd really appreciate a solo tab please!
Thank you!

guest
You may want to rate the tab now too:
select rating
Wanna post a correction for this tab? Suggest correction