Oops, an error
Loading. Please wait.

Fingers Crossed Bass Tab

version 2
version 2

Whole song

  • Has lyrics to the beginning of each part. Has slid... Show more

Interactive

16 views 1 this week
no commentswrite comment
1 2 3 4 5
3 more votes to show rating
add to favorites
launch autoscroll
font size
0
reset
guitar tuner
Autoscroll
slow
fast
+/-
esc
set tempo
stop
Help us to improve Ultimate-Guitar.com Take our survey!
×
Author
About this tab version
Has lyrics to the beginning of each part. Has slides and octaves played in the album version. Was this info helpful? Yes No
Work with strumming pattern and you'll get it.

Intro:
G|------------------------------------------------------------------------|
D|------------------------------------------------------------------------|
A|--5-5-5-5-5-5-5-5-------------------------------------------------------|
E|-------------------5-5-5-5-5-5-5-5--7-7-7-7-7-7-7-7--3-3-3-3--5-5-5-5---|

G|------------------------------------------------------------------------|
D|------------------------------------------------------------------------|
A|--5-5-5-5-5-5-5-5-------------------------------------------------------|
E|-------------------5-5-5-5-5-5-5-5--7-7-7-7-7-7-7-7--3-3-3-3--5-5-5-5---|

G|--------------------|
D|--------------------|
A|--5-5-5-5-5-5-------|
E|--------------5-5---|

Verse:
I always knew you were a keeper...
G|-------------------------------------------------------------------------|
D|-------------------------------------------------------------------------|
A|--5-5-5-5-5-5-5-5--------------------------------------------------------|
E|-------------------5-5-5-5-5-5-5-5--7-7-7-7--3-3-3-3--7-7-7-7--3-3-3-3---|

G|-------------------------------------------------------------------------|
D|-------------------------------------------------------------------------|
A|--5-5-5-5-5-5-5-5--------------------------------------------------------|
E|-------------------5-5-5-5-5-5-5-5--7-7-7-7--3-3-3-3--7-7-7-7--3-3-3-3---|

Pre Chorus (hold until break before chorus):
G|--------------------|
D|--------------------|
A|--------------------|
E|--3-/-15------------|

Chorus:
And now you're back on your feet again...
G|------------------------------------------------------------------------|
D|------------------------------------------------------------------------|
A|--5-5-5-5-5-5-5-5-------------------------------------------------------|
E|-------------------5-5-5-5-5-5-5-5--7-7-7-7-7-7-7-7--3-3-3-3--5-5-5-5---|

G|------------------------------------------------------------------------|
D|------------------------------------------------------------------------|
A|--5-5-5-5-5-5-5-5-------------------------------------------------------|
E|-------------------5-5-5-5-5-5-5-5--7-7-7-7-7-7-7-7--3-3-3-3--5-5-5-5---|

G|--------------------|
D|--------------------|
A|--5-5-5-5-5-5-------|
E|--------------5-5---|

Verse:
I know I've been part of the reasons...
G|-------------------------------------------------------------------------|
D|-------------------------------------------------------------------------|
A|--5-5-5-5-5-5-5-5--------------------------------------------------------|
E|-------------------5-5-5-5-5-5-5-5--7-7-7-7--3-3-3-3--7-7-7-7--3-3-3-3---|

G|-------------------------------------------------------------------------|
D|-------------------------------------------------------------------------|
A|--5-5-5-5-5-5-5-5--------------------------------------------------------|
E|-------------------5-5-5-5-5-5-5-5--7-7-7-7--3-3-3-3--7-7-7-7--3-3-3-3---|

Pre Chorus (hold until break before chorus):
G|--------------------|
D|--------------------|
A|--------------------|
E|--3-/-15------------|

Chorus:
And now you're back on your feet again...
G|------------------------------------------------------------------------|
D|------------------------------------------------------------------------|
A|--5-5-5-5-5-5-5-5-------------------------------------------------------|
E|-------------------5-5-5-5-5-5-5-5--7-7-7-7-7-7-7-7--3-3-3-3--5-5-5-5---|

G|------------------------------------------------------------------------|
D|------------------------------------------------------------------------|
A|--5-5-5-5-5-5-5-5-------------------------------------------------------|
E|-------------------5-5-5-5-5-5-5-5--7-7-7-7-7-7-7-7--3-3-3-3--5-5-5-5---|

G|--------------------|
D|--------------------|
A|--7-/-19------------|
E|--7-/-19------------|

Bridge:
It doesn't matter what others say...
G|------------------------------------------------------------------------|
D|------------------------------------------------------------------------|
A|--7-7-7-7-7-7-7-7-------------------5-5-5-5-----------------------------|
E|-------------------5-5-5-5-5-5-5-5-----------9-9-9-9--7-7-7-7-7-7-7-7---|

G|---------------------------------------------------------------------------------------|
D|---------------------------------------------------------------------------------------|
A|--7-7-7-7-7-7-7-7--9-9-9-9-9-9-9-9--10-10-10-10-10-10-10-10--10-10-10-10-10-10-10-10---|
E|---------------------------------------------------------------------------------------|

Guitar Only:
And you're the one always beside me...
G|--------------------|
D|--------------------|
A|--5(ring)-----------|
E|--------------------|

Bass Comes in:
And I'm the one selfish and greedy...
G|-----------------------------------------------------------------------|
D|-----------------------------------------------------5(ring)--7(ring)--|
A|--5-5-5-5-5-5-5-5------------------------------------------------------|
E|-------------------5-5-5-5-5-5-5-5--7-7-7-7-7-7-7-7--------------------|

Chorus:
And now you're back on your feet again...
G|------------------------------------------------------------------------|
D|------------------------------------------------------------------------|
A|--5-5-5-5-5-5-5-5-------------------------------------------------------|
E|-------------------5-5-5-5-5-5-5-5--7-7-7-7-7-7-7-7--3-3-3-3--5-5-5-5---|

G|------------------------------------------------------------------------|
D|------------------------------------------------------------------------|
A|--5-5-5-5-5-5-5-5-------------------------------------------------------|
E|-------------------5-5-5-5-5-5-5-5--7-7-7-7-7-7-7-7--3-3-3-3--5-5-5-5---|

Shine... On you...
G|------------------------------------------------------------------------|
D|------------------------------------------------------------------------|
A|--5-5-5-5-5-5-5-5-------------------------------------------------------|
E|-------------------5-5-5-5-5-5-5-5--7-7-7-7-7-7-7-7--3-3-3-3--5-5-5-5---|

G|------------------------------------------------------------------------|
D|------------------------------------------------------------------------|
A|--5-5-5-5-5-5-5-5-------------------------------------------------------|
E|-------------------5-5-5-5-5-5-5-5--7-7-7-7-7-7-7-7--3-3-3-3--5-5-5-5---|

End:
G|--------------------|
D|--------------------|
A|--5(ring)-----------|
E|--------------------|






Suggest correction
Give kudos to tab author, rate the tab!
1 2 3 4 5
comments
print report bad tab
guest
You may want to rate the tab now too:
select rating
Wanna post a correction for this tab? Suggest correction