Oops, an error
Loading. Please wait.

Fox bass

version 1
version 1

Whole song

Interactive

917 views 1 this week
1 commentread comment
1 2 3 4 5
2 more votes to show rating
add to favorites
×
Save as Personal and add changes to this tab that will be seen only by you. Learn more ›
×
You can save this tab as Personal to edit and correct it or add notes. All changes will be seen only by you. Learn more »
launch autoscroll
font size
0
reset
guitar tuner
edit
Autoscroll
slow
fast
+/-
esc
set tempo
stop
Difficulty
Title:  
Band:  Millencolin
Album:  Pennybridge Pioneers (2000)
tabbed by : papa bear 

It's sound totally right, but I'm a real amateur so.. I dunno. 

anyway, it's a real simple and fun song to play, Go Örebro Pioneers!

 

verse och chorus

G|--------------------------------------------------------|
D|--------------------------------------------------------|
A|--0h5555-----------5555---------------------------------|
E|-----------0h3333--------3333----7777--5555--3333-3333--|


bridge

G|--------7--6--4---------|
D|-----------------7------|
A|--5555------------------|
E|------------------------|


break

G|-------------------------------------------------------------------------|
D|-------------------------------------------------------------------------|
A|-----------------5-5-5-------------------------------5-5-5---------------|
E|--7-7-7---5-5-5---------0000-0000-----7-7-7---5-5-5---------0000-0000----|

G|---------------------------------|
D|---------------------------------|
A|-----------------5-5-5-----------|
E|--7-7-7---5-5-5---------000000---|

G|---------------------------------------------------------------|
D|---------------------------------------------------------------|
A|-----------------5-5-5-5--5-5-5-5------------------------------|
E|--7-7-7---5-5-5--------------------10-10-10-10--10-10-10-10----|




... in the end, when the vocals repeat "she's the best ride I ever had"
you play harder and a bit moore staccato like, with less strokes.
something like this:

G|---------------------------------------------|
D|---------------------------------------------|
A|--0h55-----------55--------------------------|
E|-----------0h33---- -33----77---55----3333---|


..end on this and let it ring.

G|-----------------------|
D|---4~~~~~~-------------|
A|---5~~~~~~-------------|
E|-----------------------|

enoy!



            
            
Suggest correction
Creating personal tab
Creating personal tab
You can edit any tab online and save it as your Personal.

You can edit, replace or remove any tab part or add personal notes – all changes will be seen only by you.

Personal tabs can be accessed anytime from any device, even offline.
Learn more »
Give kudos to tab author, rate the tab!
1 2 3 4 5
comments
print report bad tab
1 comment total.
0 reply
DownbëloW 102 Jun 15, 2006 05:37 PM

Enoy? Lol. Nice tab dude.

guest
Wanna post a correction for this tab? Suggest correction