Oops, an error
Loading. Please wait.

Fox Tab

version 1
version 1

Whole song

Interactive

6,495 views 1 this week
3 commentsread comments
1 2 3 4 5
x 6
add to favorites
launch autoscroll
font size
0
reset
how to read this tab
guitar tuner
Autoscroll
slow
fast
+/-
esc
set tempo
stop
Millencolin - FOX.
 Tabbed by ANDY PELL   MillencolinWonderboy@hotmail.com.
  
e|--------------------------------
B|--------------------------------
G|--77----77----77----------------
D|--77-77-77-77-77-77-55-44-------
A|--55-77-55-77-55-77-55-44-------
E|-----55----55----55-33-22-------

e|--------------------------------
B|--------------------------------
G|--7-----------------------------
D|--7-----------------------------
A|--5--------------------------55-
E|--------------------------------

e|--------------------------------
B|--------------------------------
G|--7-7-7-7-7-7-7-7---------------
D|--7-7-7-7-7-7-7-7---------------
A|--5-5-5-5-5-5-5-5---------------
E|--------------------------------

e|--------------------------------
B|--------------------------------
G|--777777-999999-555555-999999---
D|--777777-999999-555555-999999---
A|--555555-777777-333333-777777---
E|--------------------------------

e|--------------------------------
B|--------------------------------
G|--99999999-11-11-999-7---------- eleven not 1 & 1
D|--------------------------------
A|--------------------------------
E|--------------------------------

 
:: Ultimate Guitar Archive :: 
http://www.ultimate-guitar.com 



Suggest correction
comments
print report bad tab
3 comments total.
0 reply
Specma 80 Feb 12, 2003 07:00 PM

I play it like this and I think its a little bit closer...

e|---------------------------------
B|---------------------------------
G|--77----77-----77----------------
D|--77-77-77-79--77-77-53-43-------
A|--55-77-55-79--55-77-53-43-------
E|-----55----57-----55-31-21-------

and bend the nines in the solo...

0 reply
Specma 80 Feb 12, 2003 07:00 PM

oh sh1t, that doesnt look to good...but I hope u get the idea anyway

0 reply
dtmax 270 Jan 30, 2004 07:00 PM

none of the notes in the solo are bent, hes using a wah.

guest
Wanna post a correction for this tab? Suggest correction