Oops, an error
Loading. Please wait.

Saved By Hell tab

205 views 3 this week
1 commentread comment
1 2 3 4 5
1 last vote to show rating
add to favorites
×
Save as Personal and add changes to this tab that will be seen only by you. Learn more ›
×
You can save this tab as Personal to edit and correct it or add notes. All changes will be seen only by you. Learn more »
launch autoscroll
font size
0
reset
how to read this tab
guitar tuner
edit
Autoscroll
slow
fast
+/-
esc
set tempo
stop
Author
Tab for the rhythm part of Saved by Hell - Millencolin. 
I am sorry for the rather complicated verse part, I could not really count the 
number of times the notes were hit. 
Therefore I used the lyrics as indication of changes and figures to indicate to 
which it changes. Hope this helps you!

Intro (repeat until singing start)

/ = slide
~ = vibrate

e|-------------------------|
B|-------------------------|
G|-------------------------|
D|-------------------------|
A|-5-5-5-5-5-5-5-5-5-5-5---|
E|--7-7-7-7-7-7-7-7-7-7-7--|

Verse
Figure 1(F1)              Figure 2(F2)           Figure 3(F3)
e|--------------|       e|----------------|     e|--------------|
B|--------------|       B|----------------|     B|--------------|
G|--------------|       G|----------------|     G|--------------|
D|--------------|       D|----------------|     D|--------------|
A|-5-5-5-5-5-5--|       A|-10-10-10-10-10-|     A|-7-7-7-7-7-7--|
E|--7-7-7-7-7-7-|       E|--12-12-12-12-12|     E|--9-9-9-9-9-9-|

   F#m
e|----|
B|----|
G|----|
D|-4--|
A|-4--|
E|-2--|

Chorus repeat twice (distortion
  I was saved             Or rather saved     Because      No it        
e|----------------------|-------------------|------------|----------|
B|----------------------|-------------------|------------|----------|
G|----------------------|-77/99-77/99-77/99-|------------|----------|
D|-7/99-7/99-7/99-7/99--|-xx/xx-xx/xx-xx/xx-|-7----------|--4-------|
A|-7/99-7/99-7/99-7/99--|-55/77-55/77-55/77-|-7----------|--4-------|
E|-5/77-5/77-5/77-5/77--|-------------------|-5----------|--2-------|
                                              Let ring     Let ring
To be doing well
e|----------------------|
B|----------------------|
G|----------------------|
D|-9-99-9-99-9-99-9-99--|
A|-7h99-7h99-7h99-7h99--|
E|-7-77-7-77-7-77-7-77--| Let the last chord ring at the end of the song

Ending of Chorus
e|------------|
B|------------|
G|-11----------|
D|-x----------|
A|-9--times 8-|
E|------------|

Verse (Clean)

F1
Trouble down on my own street 
F1                   F2
Domestic violence on repeat 
F3                   F1
Smashed up doors and yelling again
F2               F1
Some say you are insane 
F1
But I don't think so I love you 
F1                       F2
When you are smiling I am too 
F3                           F1
The only troubles I have are yours 
F3                    F1
Please just make them end 
F3                     F1
Until they find you something that cures 
F3               F#m
I hide away at friends 

Chorus

F1
My friends look forward to friday night 
F1            
While I am anxious 
     F3
for the weekend fights 
F2
In a small apartment 
F1
there's nowhere to run 
F2
When chaos has begun 
F1
I hold my ears to dull the noise 
F1                    F3
But I can still hear your loud voice 
F2               F1
I hide under my bed 'til it's gone 
F2                 F#m
Why can't you get along? 

Chorus

Solo repeat twice
e|------------------|---------------------------|
B|------------------|---------------------------|
G|--11-11-11-9-7----|--11-11-11-9-7-9-11-9/7----|
D|---------------9~~|------------------------9~~|
A|------------------|---------------------------|
E|------------------|---------------------------|

e|------------------------------------|----------------------------|
B|------------------------------------|----------------------------|
G|--11-11-11-9-7-6/7-7/11-9--6/9-7----|----------------------------|
D|---------------------------------9~~|-9-9-9-7h9-9-9-7h9-9-7h9-9-9|
A|------------------------------------|----------------------------|
E|------------------------------------|----------------------------|

I don't know the final ending yet. They are bending something not sure what.



I'll gladly hear any comments!
Suggest correction
Creating personal tab
Creating personal tab
You can edit any tab online and save it as your Personal.

You can edit, replace or remove any tab part or add personal notes – all changes will be seen only by you.

Personal tabs can be accessed anytime from any device, even offline.
Learn more »
Give kudos to tab author, rate the tab!
1 2 3 4 5
comments
print report bad tab
1 comment total.
0 reply
BlenderBR 18,046 Oct 23, 2013 04:10 PM

Sounds great to me !

guest
You may want to rate the tab now too:
select rating
Wanna post a correction for this tab? Suggest correction