Oops, an error
Loading. Please wait.

Shut You Out ukulele

version 1
version 1

Whole song

Interactive

51 views 1 this week
no commentswrite comment
1 2 3 4 5
3 more votes to show rating
add to favorites
×
Save as Personal and add changes to this tab that will be seen only by you. Learn more ›
×
You can save this tab as Personal to edit and correct it or add notes. All changes will be seen only by you. Learn more »
launch autoscroll
font size
0
reset
transpose
0
reset
display chords
guitar tuner
edit
Autoscroll
slow
fast
+/-
esc
set tempo
stop
Strumming
There is no strumming pattern for this song yet. and get +5 IQ
Artist: Millencolin
Song: Shut You Out
Album: Kingwood
Tabber: Andy Zajac

Tuning: standard

im positive the intro, verse, and chorus are 100% correct, just the last part is alittle 
but im pretty sure its right too. Have fun.

[Intro] its played throughout some parts of the song too
e-----------------|
B-------6---------|
G----------8------|
D-----------------|
A---4---------4---|
E-----------------|

[Verse]
e-------------------------|
B-------------------------|
G-6-6-66--666-666---------|
D-x-x-xx--xxx-xxx---------|
A-4-4-44--444-444---------|
E-------------------------|


[Chorus]
e----------------------------|
B----------------------------|
G-66666666-------------------|
D-66666666-66666666-88888888-|
A-44444444-66666666-88888888-|
E----------44444444-66666666-|


[end of chorus]
e-----------------------------|
B-----------------------------|
G-----------------------------|
D-44444444-66666666-88888888--|
A-44444444-66666666-88888888--|
E-22222222-44444444-66666666--|

[last part after chorus]
e-------------------------------------|
B-------------------------------------|
G-------------------------------------|
D-444-666-888--11-11-11-10-10-10-888--|
A-xxx-xxx-xxx--x--x--x--x--x--x--xxx--|
E-222-444-666--9--9--9--8--8--8--666--|


thats it well most of it, have fun and im sure its the best tab for this song yet, rate 
well!!!

            
            
Suggest correction
Creating personal tab
Creating personal tab
You can edit any tab online and save it as your Personal.

You can edit, replace or remove any tab part or add personal notes – all changes will be seen only by you.

Personal tabs can be accessed anytime from any device, even offline.
Learn more »
Give kudos to tab author, rate the tab!
1 2 3 4 5
comments
print report bad tab
guest
Wanna post a correction for this tab? Suggest correction