Oops, an error
Loading. Please wait.

True Brew tab

190 views 9 this week
1 commentread comment
1 2 3 4 5
3 more votes to show rating
add to favorites
×
Save as Personal and add changes to this tab that will be seen only by you. Learn more ›
×
You can save this tab as Personal to edit and correct it or add notes. All changes will be seen only by you. Learn more »
launch autoscroll
font size
0
reset
how to read this tab
guitar tuner
edit
Autoscroll
slow
fast
+/-
esc
set tempo
stop
Author
Difficulty
About this tab version
There are chords for this song already, but this is in tab form with lead guitar parts. Was this info helpful? Yes No
True Brew
Millencolin
True Brew (2015)
Standard Tuning

Listen to song for exact strumming and timing.

[Intro 1]

e|-----------------|-----------------|-----------------|-------------------|
B|-6---6-6---6---5-|-6---6-6---6---5-|-6---6-6---6---5-|-6-----------------|
G|-5---5-5---5---5-|-5---5-5---5---5-|-5---5-5---5---5-|-5---10-10---10-10-|
D|-----------------|-----------------|-----------------|-----x--x----x--x--|
A|-----------------|-----------------|-----------------|-----8--8----8--8--|
E|-----------------|-----------------|-----------------|-------------------|

[Intro 2]

Guitar 1
e|-----------------|-----------------|-----------------|------------------|
B|-----------------|-----------------|-----------------|------------------|
G|-9---9-9---9---7-|-9---9-9---9---7-|-9---9-9---9---7-|-9---9-9---9/12---|
D|-x---x-x---x---x-|-x---x-x---x---x-|-x---x-x---x---x-|-x---x-x---x-x----|
A|-7---7-7---7---5-|-7---7-7---7---5-|-7---7-7---7---5-|-7---7-7---7/10---|
E|-----------------|-----------------|-----------------|------------------|

e|----------------------|----------------------|-----------------|-----------------|
B|----------------------|----------------------|-----------------|-----------------|
G|-14---14-14---14---12-|-14---14-14---14\12---|-5---5-5---5---7-|-9---9-9---9---7-|
D|-x----x--x----x----x--|-x----x--x----x--x----|-x---x-x---x---x-|-x---x-x---x---x-|
A|-12---12-12---12---10-|-12---12-12---12\10---|-3---3-3---3---5-|-7---7-7---7---5-|
E|----------------------|----------------------|-----------------|-----------------| (All x2)

Guitar 2
e|-----------------|-----------------|-----------------|-----------------|
B|-----------------|-----------------|-----------------|-----------------|
G|-5-5-5-5-5-5-5-5-|-5-5-5-5-5-5-5-5-|-5-5-5-5-5-5-5-5-|-5-5-5-5-5-5-5-5-|
D|-5-5-5-5-5-5-5-5-|-5-5-5-5-5-5-5-5-|-5-5-5-5-5-5-5-5-|-5-5-5-5-5-5-5-5-|
A|-3-3-3-3-3-3-3-3-|-3-3-3-3-3-3-3-3-|-3-3-3-3-3-3-3-3-|-3-3-3-3-3-3-3-3-|
E|-----------------|-----------------|-----------------|-----------------|

e|-----------------|-----------------|-----------------|-----------------|
B|-----------------|-----------------|-----------------|-----------------|
G|-----------------|-----------------|-----------------|-----------------|
D|-7-7-7-7-7-7-7-7-|-7-7-7-7-7-7-7-7-|-3-3-3-3-3-3-3-3-|-3-3-3-3-3-3-3-3-|
A|-7-7-7-7-7-7-7-7-|-7-7-7-7-7-7-7-7-|-3-3-3-3-3-3-3-3-|-3-3-3-3-3-3-3-3-|
E|-5-5-5-5-5-5-5-5-|-5-5-5-5-5-5-5-5-|-1-1-1-1-1-1-1-1-|-1-1-1-1-1-1-1-1-| (All x2)

[Verse 1]

Guitar 1
e|-----------------|-----------------|-----------------|-----------------|
B|-----------------|-----------------|-----------------|-----------------|
G|-9---------------|-----------------|-----------------|-----------------|
D|-x---------------|-----------------|-----------------|-----------------|
A|-7---------------|-----------------|-----------------|-----------------|
E|-----------------|-----------------|-----------------|-----------------|

e|-----------------|-----------------|-----------------|-----------------|
B|-----------------|-----------------|-----------------|-----------------|
G|-----------------|-----------------|-----------------|--------10-10-10-|
D|-----------------|-----------------|-----------------|--------x--x--x--|
A|-----------------|-----------------|-----------------|--------8--8--8--|
E|-----------------|-----------------|-----------------|-----------------|

e|-----------------|-----------------|-----------------|-----------------|
B|-----------------|-----------------|-----------------|-----------------|
G|-9---9-9---9---9-|-9---9-9---9---9-|-7---7-7---7---7-|-7---7-7---7---7-|
D|-x---x-x---x---x-|-x---x-x---x---x-|-x---x-x---x---x-|-x---x-x---x---x-|
A|-7---7-7---7---7-|-7---7-7---7---7-|-5---5-5---5---5-|-5---5-5---5---5-|
E|-----------------|-----------------|-----------------|-----------------|

e|-----------------|-----------------|-----------------|-----------------|
B|-----------------|-----------------|-----------------|-----------------|
G|-5---5-5---5---5-|-5---5-5---5---5-|-9---9-9---9---9-|-9---9-9---9---9-|
D|-x---x-x---x---x-|-x---x-x---x---x-|-x---x-x---x---x-|-x---x-x---x---x-|
A|-3---3-3---3---3-|-3---3-3---3---3-|-7---7-7---7---7-|-7---7-7---7---7-|
E|-----------------|-----------------|-----------------|-----------------|

e|-----------------|-----------------|
B|-----------------|-----------------|
G|-5---5-5---5---5-|-5---5-5---5---5-|
D|-x---x-x---x---x-|-x---x-x---x---x-|
A|-3---3-3---3---3-|-3---3-3---3---3-|
E|-----------------|-----------------|

e|-----------------|-----------------|-----------------|-----------------|
B|-----------------|-----------------|-----------------|-----------------|
G|-7---7-7---7---7-|-7---7-7---7---7-|-7---7-7---7---7-|-7---7-7---7---5-|
D|-x---x-x---x---x-|-x---x-x---x---x-|-x---x-x---x---x-|-x---x-x---x---x-|
A|-5---5-5---5---5-|-5---5-5---5---5-|-5---5-5---5---5-|-5---5-5---5---3-|
E|-----------------|-----------------|-----------------|-----------------|

Guitar 2
e|-----------------|-----------------|-----------------|-----------------|
B|-----------------|-----------------|-----------------|-----------------|
G|-----------------|-----------------|-----------------|-----------------|
D|-7-7-7-7-7-7-7-7-|-7-7-7-7-7-7-7-7-|-5-5-5-5-5-5-5-5-|-5-5-5-5-5-5-5-5-|
A|-7-7-7-7-7-7-7-7-|-7-7-7-7-7-7-7-7-|-5-5-5-5-5-5-5-5-|-5-5-5-5-5-5-5-5-|
E|-5-5-5-5-5-5-5-5-|-5-5-5-5-5-5-5-5-|-3-3-3-3-3-3-3-3-|-3-3-3-3-3-3-3-3-|

e|-----------------|-----------------|-----------------|-----------------|
B|-----------------|-----------------|-----------------|-----------------|
G|-----------------|-----------------|-5-5-5-5-5-5-5-5-|-5-5-5-5-5-5-5-5-|
D|-3-3-3-3-3-3-3-3-|-3-3-3-3-3-3-3-3-|-5-5-5-5-5-5-5-5-|-5-5-5-5-5-5-5-5-|
A|-3-3-3-3-3-3-3-3-|-3-3-3-3-3-3-3-3-|-3-3-3-3-3-3-3-3-|-3-3-3-3-3-3-3-3-|
E|-1-1-1-1-1-1-1-1-|-1-1-1-1-1-1-1-1-|-----------------|-----------------| (x2)

e|-----------------|-----------------|
B|-----------------|-----------------|
G|-----------------|-----------------|
D|-3-3-3-3-3-3-3-3-|-3-3-3-3-3-3-3-3-|
A|-3-3-3-3-3-3-3-3-|-3-3-3-3-3-3-3-3-|
E|-1-1-1-1-1-1-1-1-|-1-1-1-1-1-1-1-1-|

e|-----------------|-----------------|-----------------|-----------------|
B|-----------------|-----------------|-----------------|-----------------|
G|-----------------|-----------------|-----------------|-----------------|
D|-5-5-5-5-5-5-5-5-|-5-5-5-5-5-5-5-5-|-5-5-5-5-5-5-5-5-|-5-5-5-5-5-5-5-5-|
A|-5-5-5-5-5-5-5-5-|-5-5-5-5-5-5-5-5-|-5-5-5-5-5-5-5-5-|-5-5-5-5-5-5-5-5-|
E|-3-3-3-3-3-3-3-3-|-3-3-3-3-3-3-3-3-|-3-3-3-3-3-3-3-3-|-3-3-3-3-3-3-3-3-|

[Chorus 1]

Guitar 1
e|-----------------|--------------------|-----------------|-------------------|
B|-----------------|--------------------|-----------------|-------------------|
G|-9-9-9-9-9-9-9-9-|-9-9-9-9-9-12-12-12-|-9-9-9-9-9-9-9-9-|-9-9-9-9-9-9-12-12-|
D|-x-x-x-x-x-x-x-x-|-x-x-x-x-x-x--x--x--|-x-x-x-x-x-x-x-x-|-x-x-x-x-x-x-x--x--|
A|-7-7-7-7-7-7-7-7-|-7-7-7-7-7-10-10-10-|-7-7-7-7-7-7-7-7-|-7-7-7-7-7-7-10-10-|
E|-----------------|--------------------|-----------------|-------------------|

e|-------------------------|-------------------------|-----------------|-----------------|
B|-------------------------|-------------------------|-----------------|-----------------|
G|-14-14-14-14-14-14-14-14-|-14-14-14-14-14-14-12-12-|-5-5-5-5-5-5-5-7-|-9-9-9-9-9-9-7-7-|
D|-x--x--x--x--x--x--x--x--|-x--x--x--x--x--x--x--x--|-x-x-x-x-x-x-x-x-|-x-x-x-x-x-x-x-x-|
A|-12-12-12-12-12-12-12-12-|-12-12-12-12-12-12-10-10-|-3-3-3-3-3-3-3-5-|-7-7-7-7-7-7-5-5-|
E|-------------------------|-------------------------|-----------------|-----------------| (All x2)

Guitar 2
e|-----------------|-----------------|-----------------|-----------------|
B|-----------------|-----------------|-----------------|-----------------|
G|-5-5-5-5-5-5-5-5-|-5-5-5-5-5-5-5-5-|-5-5-5-5-5-5-5-5-|-5-5-5-5-5-5-5-5-|
D|-5-5-5-5-5-5-5-5-|-5-5-5-5-5-5-5-5-|-5-5-5-5-5-5-5-5-|-5-5-5-5-5-5-5-5-|
A|-3-3-3-3-3-3-3-3-|-3-3-3-3-3-3-3-3-|-3-3-3-3-3-3-3-3-|-3-3-3-3-3-3-3-3-|
E|-----------------|-----------------|-----------------|-----------------|

e|-----------------|-----------------|-----------------|-----------------|
B|-----------------|-----------------|-----------------|-----------------|
G|-----------------|-----------------|-----------------|-----------------|
D|-7-7-7-7-7-7-7-7-|-7-7-7-7-7-7-7-7-|-3-3-3-3-3-3-3-3-|-3-3-3-3-3-3-3-3-|
A|-7-7-7-7-7-7-7-7-|-7-7-7-7-7-7-7-7-|-3-3-3-3-3-3-3-3-|-3-3-3-3-3-3-3-3-|
E|-5-5-5-5-5-5-5-5-|-5-5-5-5-5-5-5-5-|-1-1-1-1-1-1-1-1-|-1-1-1-1-1-1-1-1-| (All x2)

[Verse 2]

Guitar 1
e|-----------------|-----------------|-----------------|-----------------|
B|-----------------|-----------------|-----------------|-----------------|
G|-9---------------|-----------------|-----------------|-----------------|
D|-x---------------|-----------------|-----------------|-----------------|
A|-7---------------|-----------------|-----------------|-----------------|
E|-----------------|-----------------|-----------------|-----------------|

e|-----------------|-----------------|-----------------|-----------------|
B|-----------------|-----------------|-----------------|-----------------|
G|-----------------|-----------------|-----------------|--------10-10-10-|
D|-----------------|-----------------|-----------------|--------x--x--x--|
A|-----------------|-----------------|-----------------|--------8--8--8--|
E|-----------------|-----------------|-----------------|-----------------|

e|-----------------|-----------------|-----------------|-----------------|
B|-----------------|-----------------|-----------------|-----------------|
G|-9---9-9---9---9-|-9---9-9---9---9-|-7---7-7---7---7-|-7---7-7---7---7-|
D|-x---x-x---x---x-|-x---x-x---x---x-|-x---x-x---x---x-|-x---x-x---x---x-|
A|-7---7-7---7---7-|-7---7-7---7---7-|-5---5-5---5---5-|-5---5-5---5---5-|
E|-----------------|-----------------|-----------------|-----------------|

e|-----------------|-----------------|-----------------|-----------------|
B|-----------------|-----------------|-----------------|-----------------|
G|-5---5-5---5---5-|-5---5-5---5---5-|-9---9-9---9---9-|-9---9-9---9---9-|
D|-x---x-x---x---x-|-x---x-x---x---x-|-x---x-x---x---x-|-x---x-x---x---x-|
A|-3---3-3---3---3-|-3---3-3---3---3-|-7---7-7---7---7-|-7---7-7---7---7-|
E|-----------------|-----------------|-----------------|-----------------|

e|-----------------|-----------------|
B|-----------------|-----------------|
G|-5---5-5---5---5-|-5---5-5---5---5-|
D|-x---x-x---x---x-|-x---x-x---x---x-|
A|-3---3-3---3---3-|-3---3-3---3---3-|
E|-----------------|-----------------|

e|-----------------|-----------------|-----------------|-----------------|
B|-----------------|-----------------|-----------------|-----------------|
G|-7---7-7---7---7-|-7---7-7---7---7-|-7---7-7---7---7-|-7---7-7---7---5-|
D|-x---x-x---x---x-|-x---x-x---x---x-|-x---x-x---x---x-|-x---x-x---x---x-|
A|-5---5-5---5---5-|-5---5-5---5---5-|-5---5-5---5---5-|-5---5-5---5---3-|
E|-----------------|-----------------|-----------------|-----------------|

Guitar 2
e|-----------------|-----------------|-----------------|-----------------|
B|-----------------|-----------------|-----------------|-----------------|
G|-----------------|-----------------|-----------------|-----------------|
D|-7-7-7-7-7-7-7-7-|-7-7-7-7-7-7-7-7-|-5-5-5-5-5-5-5-5-|-5-5-5-5-5-5-5-5-|
A|-7-7-7-7-7-7-7-7-|-7-7-7-7-7-7-7-7-|-5-5-5-5-5-5-5-5-|-5-5-5-5-5-5-5-5-|
E|-5-5-5-5-5-5-5-5-|-5-5-5-5-5-5-5-5-|-3-3-3-3-3-3-3-3-|-3-3-3-3-3-3-3-3-|

e|-----------------|-----------------|-----------------|-----------------|
B|-----------------|-----------------|-----------------|-----------------|
G|-----------------|-----------------|-5-5-5-5-5-5-5-5-|-5-5-5-5-5-5-5-5-|
D|-3-3-3-3-3-3-3-3-|-3-3-3-3-3-3-3-3-|-5-5-5-5-5-5-5-5-|-5-5-5-5-5-5-5-5-|
A|-3-3-3-3-3-3-3-3-|-3-3-3-3-3-3-3-3-|-3-3-3-3-3-3-3-3-|-3-3-3-3-3-3-3-3-|
E|-1-1-1-1-1-1-1-1-|-1-1-1-1-1-1-1-1-|-----------------|-----------------| (x2)

e|-----------------|-----------------|
B|-----------------|-----------------|
G|-----------------|-----------------|
D|-3-3-3-3-3-3-3-3-|-3-3-3-3-3-3-3-3-|
A|-3-3-3-3-3-3-3-3-|-3-3-3-3-3-3-3-3-|
E|-1-1-1-1-1-1-1-1-|-1-1-1-1-1-1-1-1-|

e|-----------------|-----------------|-----------------|-----------------|
B|-----------------|-----------------|-----------------|-----------------|
G|-----------------|-----------------|-----------------|-----------------|
D|-5-5-5-5-5-5-5-5-|-5-5-5-5-5-5-5-5-|-5-5-5-5-5-5-5-5-|-5-5-5-5-5-5-5-5-|
A|-5-5-5-5-5-5-5-5-|-5-5-5-5-5-5-5-5-|-5-5-5-5-5-5-5-5-|-5-5-5-5-5-5-5-5-|
E|-3-3-3-3-3-3-3-3-|-3-3-3-3-3-3-3-3-|-3-3-3-3-3-3-3-3-|-3-3-3-3-3-3-3-3-|

[Chorus 2]

Guitar 1
e|-----------------|--------------------|-----------------|-------------------|
B|-----------------|--------------------|-----------------|-------------------|
G|-9-9-9-9-9-9-9-9-|-9-9-9-9-9-12-12-12-|-9-9-9-9-9-9-9-9-|-9-9-9-9-9-9-12-12-|
D|-x-x-x-x-x-x-x-x-|-x-x-x-x-x-x--x--x--|-x-x-x-x-x-x-x-x-|-x-x-x-x-x-x-x--x--|
A|-7-7-7-7-7-7-7-7-|-7-7-7-7-7-10-10-10-|-7-7-7-7-7-7-7-7-|-7-7-7-7-7-7-10-10-|
E|-----------------|--------------------|-----------------|-------------------|

e|-------------------------|-------------------------|-----------------|-----------------|
B|-------------------------|-------------------------|-----------------|-----------------|
G|-14-14-14-14-14-14-14-14-|-14-14-14-14-14-14-12-12-|-5-5-5-5-5-5-5-7-|-9-9-9-9-9-9-7-7-|
D|-x--x--x--x--x--x--x--x--|-x--x--x--x--x--x--x--x--|-x-x-x-x-x-x-x-x-|-x-x-x-x-x-x-x-x-|
A|-12-12-12-12-12-12-12-12-|-12-12-12-12-12-12-10-10-|-3-3-3-3-3-3-3-5-|-7-7-7-7-7-7-5-5-|
E|-------------------------|-------------------------|-----------------|-----------------| (All x2)

Guitar 2
e|-----------------|-----------------|-----------------|-----------------|
B|-----------------|-----------------|-----------------|-----------------|
G|-5-5-5-5-5-5-5-5-|-5-5-5-5-5-5-5-5-|-5-5-5-5-5-5-5-5-|-5-5-5-5-5-5-5-5-|
D|-5-5-5-5-5-5-5-5-|-5-5-5-5-5-5-5-5-|-5-5-5-5-5-5-5-5-|-5-5-5-5-5-5-5-5-|
A|-3-3-3-3-3-3-3-3-|-3-3-3-3-3-3-3-3-|-3-3-3-3-3-3-3-3-|-3-3-3-3-3-3-3-3-|
E|-----------------|-----------------|-----------------|-----------------|

e|-----------------|-----------------|-----------------|-----------------|
B|-----------------|-----------------|-----------------|-----------------|
G|-----------------|-----------------|-----------------|-----------------|
D|-7-7-7-7-7-7-7-7-|-7-7-7-7-7-7-7-7-|-3-3-3-3-3-3-3-3-|-3-3-3-3-3-3-3-3-|
A|-7-7-7-7-7-7-7-7-|-7-7-7-7-7-7-7-7-|-3-3-3-3-3-3-3-3-|-3-3-3-3-3-3-3-3-|
E|-5-5-5-5-5-5-5-5-|-5-5-5-5-5-5-5-5-|-1-1-1-1-1-1-1-1-|-1-1-1-1-1-1-1-1-| (All x2)

[Bridge 1]

e|-----------------|-----------------|-----------------|-----------------|
B|-----------------|-----------------|-----------------|-----------------|
G|-7-7-7-x-x-x-x-x-|-7-7-7-x-x-x-x-x-|-----------------|-----------------|
D|-7-7-7-x-x-x-x-x-|-7-7-7-x-x-x-x-x-|-5-5-5-5-5-5-5-5-|-5-5-5-5-3-3-3-3-|
A|-5-5-5-x-x-x-x-x-|-5-5-5-x-x-x-x-x-|-5-5-5-5-5-5-5-5-|-5-5-5-5-3-3-3-3-|
E|-----------------|-----------------|-3-3-3-3-3-3-3-3-|-3-3-3-3-1-1-1-1-| (x2)

e|-----------------|-----------------|-----------------|-----------------|
B|-----------------|-----------------|-----------------|-----------------|
G|-7-7-7-7-7-7-7-7-|-7-7-7-7-7-7-7-7-|-----------------|-----------------|
D|-7-7-7-7-7-7-7-7-|-7-7-7-7-7-7-7-7-|-5-5-5-5-5-5-5-5-|-5-5-5-5-5-5-5-5-|
A|-5-5-5-5-5-5-5-5-|-5-5-5-5-5-5-5-5-|-5-5-5-5-5-5-5-5-|-5-5-5-5-5-5-5-5-|
E|-----------------|-----------------|-3-3-3-3-3-3-3-3-|-3-3-3-3-3-3-3-3-|

e|-----------------|-----------------|-----------------|-----------------|
B|-----------------|-----------------|-----------------|-----------------|
G|-5-5-5-5-5-5-5-5-|-4-4-4-4-4-4-4-4-|-----------------|-----------------|
D|-5-5-5-5-5-5-5-5-|-4-4-4-4-4-4-4-4-|-7-7-7-7-7-7-7-7-|-5-5-5-5-5-5-5-5-|
A|-3-3-3-3-3-3-3-3-|-2-2-2-2-2-2-2-2-|-7-7-7-7-7-7-7-7-|-5-5-5-5-5-5-5-5-|
E|-----------------|-----------------|-5-5-5-5-5-5-5-5-|-3-3-3-3-3-3-3-3-|

e|-----------------|-----------------|-----------------|-----------------|
B|-----------------|-----------------|-----------------|-----------------|
G|-----------------|-----------------|-----------------|-----------------|
D|-3-3-3-3-3-3-3-3-|-3-3-3-3-3-3-3-3-|-3-3-3-x-x-x-x-x-|-3-3-3-x-x-x-x-x-|
A|-3-3-3-3-3-3-3-3-|-3-3-3-3-3-3-3-3-|-3-3-3-x-x-x-x-x-|-3-3-3-x-x-x-x-x-|
E|-1-1-1-1-1-1-1-1-|-1-1-1-1-1-1-1-1-|-1-1-1-x-x-x-x-x-|-1-1-1-x-x-x-x-x-|

[Bridge 2]

e|-----------------|-----------------|-----------------|-----------------|
B|-----------------|-----------------|-----------------|-----------------|
G|-5---------------|-----------------|-----------------|-----------------|
D|-5---------------|-----------------|-----------------|-------------5---|
A|-3---------------|-----------------|-----------------|-------------5---|
E|-----------------|-----------------|-----------------|-------------3---|

e|-----------------|-----------------|-----------------|-----------------|
B|-----------------|-----------------|-----------------|-----------------|
G|-----------------|-----------------|-10--------------|-----------------|
D|-7---------------|-----------------|-10--------------|-----------------|
A|-7---------------|-----------------|-8---------------|-----------------|
E|-5---------------|-----------------|-----------------|-----------------|

e|-----------------|-----------------|-----------------|-----------------|
B|-----------------|-----------------|-----------------|-----------------|
G|-5-5-5-5-5-5-5-5-|-5-5-5-5-5-5-5-5-|-5-5-5-5-5-5-5-5-|-5-5-5-5-5-5-----|
D|-5-5-5-5-5-5-5-5-|-5-5-5-5-5-5-5-5-|-5-5-5-5-5-5-5-5-|-5-5-5-5-5-5-5-5-|
A|-3-3-3-3-3-3-3-3-|-3-3-3-3-3-3-3-3-|-3-3-3-3-3-3-3-3-|-3-3-3-3-3-3-5-5-|
E|-----------------|-----------------|-----------------|-------------3-3-|

e|-----------------|-----------------|-------------------------|-------------------------|
B|-----------------|-----------------|-------------------------|-------------------------|
G|-----------------|-----------------|-10-10-10-10-10-10-10-10-|-10-10-10-10-10-10-10-10-|
D|-7-7-7-7-7-7-7-7-|-7-7-7-7-7-7-7-7-|-10-10-10-10-10-10-10-10-|-10-10-10-10-10-10-10-10-|
A|-7-7-7-7-7-7-7-7-|-7-7-7-7-7-7-7-7-|-8--8--8--8--8--8--8--8--|-8--8--8--8--8--8--8--8--|
E|-5-5-5-5-5-5-5-5-|-5-5-5-5-5-5-5-5-|-------------------------|-------------------------|

e|-----------------|-----------------|-----------------|-----------------|
B|-----------------|-----------------|-----------------|-----------------|
G|-----------------|-----------------|-----------------|-----------------|
D|-5-5-5-5-5-5-5-5-|-5-5-5-5-5-5-5-5-|-5-5-5-5-5-5-5-5-|-3-3---3-3-------|
A|-5-5-5-5-5-5-5-5-|-5-5-5-5-5-5-5-5-|-5-5-5-5-5-5-5-5-|-3-3---3-3-------|
E|-3-3-3-3-3-3-3-3-|-3-3-3-3-3-3-3-3-|-3-3-3-3-3-3-3-3-|-1-1---1-1-------|
   . . . . . . . .   . . . . . . . .   . . . .

[Chorus 3]

Guitar 1
e|-----------------|--------------------|-----------------|-------------------|
B|-----------------|--------------------|-----------------|-------------------|
G|-9-9-9-9-9-9-9-9-|-9-9-9-9-9-12-12-12-|-9-9-9-9-9-9-9-9-|-9-9-9-9-9-9-12-12-|
D|-x-x-x-x-x-x-x-x-|-x-x-x-x-x-x--x--x--|-x-x-x-x-x-x-x-x-|-x-x-x-x-x-x-x--x--|
A|-7-7-7-7-7-7-7-7-|-7-7-7-7-7-10-10-10-|-7-7-7-7-7-7-7-7-|-7-7-7-7-7-7-10-10-|
E|-----------------|--------------------|-----------------|-------------------|

e|-------------------------|-------------------------|-----------------|-----------------|
B|-------------------------|-------------------------|-----------------|-----------------|
G|-14-14-14-14-14-14-14-14-|-14-14-14-14-14-14-12-12-|-5-5-5-5-5-5-5-7-|-9-9-9-9-9-9-7-7-|
D|-x--x--x--x--x--x--x--x--|-x--x--x--x--x--x--x--x--|-x-x-x-x-x-x-x-x-|-x-x-x-x-x-x-x-x-|
A|-12-12-12-12-12-12-12-12-|-12-12-12-12-12-12-10-10-|-3-3-3-3-3-3-3-5-|-7-7-7-7-7-7-5-5-|
E|-------------------------|-------------------------|-----------------|-----------------| (All x2)

Guitar 2
e|-----------------|-----------------|-----------------|-----------------|
B|-----------------|-----------------|-----------------|-----------------|
G|-5-5-5-5-5-5-5-5-|-5-5-5-5-5-5-5-5-|-5-5-5-5-5-5-5-5-|-5-5-5-5-5-5-5-5-|
D|-5-5-5-5-5-5-5-5-|-5-5-5-5-5-5-5-5-|-5-5-5-5-5-5-5-5-|-5-5-5-5-5-5-5-5-|
A|-3-3-3-3-3-3-3-3-|-3-3-3-3-3-3-3-3-|-3-3-3-3-3-3-3-3-|-3-3-3-3-3-3-3-3-|
E|-----------------|-----------------|-----------------|-----------------|

e|-----------------|-----------------|-----------------|-----------------|
B|-----------------|-----------------|-----------------|-----------------|
G|-----------------|-----------------|-----------------|-----------------|
D|-7-7-7-7-7-7-7-7-|-7-7-7-7-7-7-7-7-|-3-3-3-3-3-3-3-3-|-3-3-3-3-3-3-3-3-|
A|-7-7-7-7-7-7-7-7-|-7-7-7-7-7-7-7-7-|-3-3-3-3-3-3-3-3-|-3-3-3-3-3-3-3-3-|
E|-5-5-5-5-5-5-5-5-|-5-5-5-5-5-5-5-5-|-1-1-1-1-1-1-1-1-|-1-1-1-1-1-1-1-1-| (All x2)

[Outro]

Guitar 1
e|-----------------|--------------------|-----------------|-------------------|
B|-----------------|--------------------|-----------------|-------------------|
G|-9-9-9-9-9-9-9-9-|-9-9-9-9-9-12-12-12-|-9-9-9-9-9-9-9-9-|-9-9-9-9-9-9-12-12-|
D|-x-x-x-x-x-x-x-x-|-x-x-x-x-x-x--x--x--|-x-x-x-x-x-x-x-x-|-x-x-x-x-x-x-x--x--|
A|-7-7-7-7-7-7-7-7-|-7-7-7-7-7-10-10-10-|-7-7-7-7-7-7-7-7-|-7-7-7-7-7-7-10-10-|
E|-----------------|--------------------|-----------------|-------------------|

e|-------------------------|-------------------------|-----------------|-----------------|
B|-------------------------|-------------------------|-----------------|-----------------|
G|-14-14-14-14-14-14-14-14-|-14-14-14-14-14-14-12-12-|-5-5-5-5-5-5-5-7-|-9-9-9-9-9-9-7-7-|
D|-x--x--x--x--x--x--x--x--|-x--x--x--x--x--x--x--x--|-x-x-x-x-x-x-x-x-|-x-x-x-x-x-x-x-x-|
A|-12-12-12-12-12-12-12-12-|-12-12-12-12-12-12-10-10-|-3-3-3-3-3-3-3-5-|-7-7-7-7-7-7-5-5-|
E|-------------------------|-------------------------|-----------------|-----------------|

e|-----------------|--------------------|-----------------|-------------------|
B|-----------------|--------------------|-----------------|-------------------|
G|-9-9-9-9-9-9-9-9-|-9-9-9-9-9-12-12-12-|-9-9-9-9-9-9-9-9-|-9-9-9-9-9-9-12-12-|
D|-x-x-x-x-x-x-x-x-|-x-x-x-x-x-x--x--x--|-x-x-x-x-x-x-x-x-|-x-x-x-x-x-x-x--x--|
A|-7-7-7-7-7-7-7-7-|-7-7-7-7-7-10-10-10-|-7-7-7-7-7-7-7-7-|-7-7-7-7-7-7-10-10-|
E|-----------------|--------------------|-----------------|-------------------|

e|-------------------------|-------------------------|--------------------|----------------------|
B|-------------------------|-------------------------|--------------------|----------------------|
G|-14-14-14-14-14-14-14-14-|-14-14-14-14-14-14-14-14-|-10-10-10-x-x-x-x-x-|-10-10-10-x-x-x-12-12-|
D|-x--x--x--x--x--x--x--x--|-x--x--x--x--x--x--x--x--|-x--x--x--x-x-x-x-x-|-x--x--x--x-x-x-x--x--|
A|-12-12-12-12-12-12-12-12-|-12-12-12-12-12-12-12-12-|-8--8--8--x-x-x-x-x-|-8--8--8--x-x-x-10-10-|
E|-------------------------|-------------------------|--------------------|----------------------|
Guitar 2
e|-----------------|-----------------|-----------------|-----------------|
B|-----------------|-----------------|-----------------|-----------------|
G|-5-5-5-5-5-5-5-5-|-5-5-5-5-5-5-5-5-|-5-5-5-5-5-5-5-5-|-5-5-5-5-5-5-5-5-|
D|-5-5-5-5-5-5-5-5-|-5-5-5-5-5-5-5-5-|-5-5-5-5-5-5-5-5-|-5-5-5-5-5-5-5-5-|
A|-3-3-3-3-3-3-3-3-|-3-3-3-3-3-3-3-3-|-3-3-3-3-3-3-3-3-|-3-3-3-3-3-3-3-3-|
E|-----------------|-----------------|-----------------|-----------------|

e|-----------------|-----------------|-----------------|-----------------|
B|-----------------|-----------------|-----------------|-----------------|
G|-----------------|-----------------|-----------------|-----------------|
D|-7-7-7-7-7-7-7-7-|-7-7-7-7-7-7-7-7-|-3-3-3-3-3-3-3-3-|-3-3-3-3-3-3-3-3-|
A|-7-7-7-7-7-7-7-7-|-7-7-7-7-7-7-7-7-|-3-3-3-3-3-3-3-3-|-3-3-3-3-3-3-3-3-|
E|-5-5-5-5-5-5-5-5-|-5-5-5-5-5-5-5-5-|-1-1-1-1-1-1-1-1-|-1-1-1-1-1-1-1-1-|

e|-----------------|-----------------|-----------------|-----------------|
B|-----------------|-----------------|-----------------|-----------------|
G|-5-5-5-5-5-5-5-5-|-5-5-5-5-5-5-5-5-|-5-5-5-5-5-5-5-5-|-5-5-5-5-5-5-5-5-|
D|-5-5-5-5-5-5-5-5-|-5-5-5-5-5-5-5-5-|-5-5-5-5-5-5-5-5-|-5-5-5-5-5-5-5-5-|
A|-3-3-3-3-3-3-3-3-|-3-3-3-3-3-3-3-3-|-3-3-3-3-3-3-3-3-|-3-3-3-3-3-3-3-3-|
E|-----------------|-----------------|-----------------|-----------------|

e|-----------------|-----------------|-----------------|-----------------|
B|-----------------|-----------------|-----------------|-----------------|
G|-----------------|-----------------|-----------------|-----------------|
D|-7-7-7-7-7-7-7-7-|-7-7-7-7-7-7-7-7-|-3-3-3-x-x-x-x-x-|-3-3-3-x-x-x-5-5-|
A|-7-7-7-7-7-7-7-7-|-7-7-7-7-7-7-7-7-|-3-3-3-x-x-x-x-x-|-3-3-3-x-x-x-5-5-|
E|-5-5-5-5-5-5-5-5-|-5-5-5-5-5-5-5-5-|-1-1-1-x-x-x-x-x-|-1-1-1-x-x-x-3-3-|

[Ending]

Guitar 1
e|---|
B|---|
G|-9-|
D|-x-|
A|-7-|
E|---|

Guitar 2
e|---|
B|---|
G|-5-|
D|-5-|
A|-3-|
E|---|

***********************************
| x   Deadnote
***********************************

            
            
Suggest correction
Creating personal tab
Creating personal tab
You can edit any tab online and save it as your Personal.

You can edit, replace or remove any tab part or add personal notes – all changes will be seen only by you.

Personal tabs can be accessed anytime from any device, even offline.
Learn more »
Give kudos to tab author, rate the tab!
1 2 3 4 5
comments
print report bad tab
1 comment total.
0 reply
itsokimgay 10 Apr 28, 2017 11:15 PM

So first no one else can be

guest
You may want to rate the tab now too:
select rating
Wanna post a correction for this tab? Suggest correction