Oops, an error
Loading. Please wait.

A Beautiful Design tab

10 views 1 this week
no commentswrite comment
1 2 3 4 5
3 more votes to show rating
add to favorites
×
Save as Personal and add changes to this tab that will be seen only by you. Learn more ›
×
You can save this tab as Personal to edit and correct it or add notes. All changes will be seen only by you. Learn more »
launch autoscroll
font size
0
reset
how to read this tab
guitar tuner
edit
Autoscroll
slow
fast
+/-
esc
set tempo
stop
Author
D|------------------|----------------|------------------|----------------|
A|------------------|----------------|------------------|----------------|
F|------------------|----------------|------------------|----------------|
C|----9-----------4-|--4-4-4-4-------|----2-------------|--4-4-4-2-2-2-2-|
G|------5-0---9-0---|--5-5-5-5-x-x-x-|------4-0-0-------|--2-2-2-2-2-2-2-|
C|0-5-------7-------|--7-7-7-7-x-x-x-|0-4---------2-0-2-|--2-2-2-2-2-2-2-|

D|------------x-x---|----------x-x-x-|------------x-x---|----------------|
A|------------x-x---|----------x-x-x-|------------x-x---|----------------|
F|------------x-x---|----------x-x-x-|------------x-x---|----------------|
C|9---9-9-9-9-x-x-4-|--4-4-4-4-x-x-x-|2---2-2-2-2-x-x-4-|--4-4-4-2-2-2-2-|
G|5---5-5-5-5-x-x-5-|--5-5-5-5-x-x-x-|4---4-4-4-4-x-x-2-|--2-2-2-2-2-2-2-|
C|5---5-5-5-5-x-x-7-|--7-7-7-7-x-x-x-|4---4-4-4-4-x-x-2-|--2-2-2-2-2-2-2-|

============================================================================

D|------------------|----------x-x-x-|------------------------|
A|------------------|----------x-x-x-|------------------------|
F|------------------|----------x-x-x-|------------------------|
C|----9-----------4-|--4-4-4-4-x-x-x-|11-11-11-11-11-11-11-12-|
G|------5-0---9-0---|--5-5-5-5-x-x-x-|-7--7--7--7--7--7--7--9-|
C|0-5-------7-------|--7-7-7-7-x-x-x-|-7--7--7--7--7--7--7--9-|

D|------------x-x---|----------x-x-x-|------------------------|
A|------------x-x---|----------x-x-x-|------------------------|
F|------------x-x---|----------x-x-x-|------------------------|
C|9---9-9-9-9-x-x-4-|--4-4-4-4-x-x-x-|11-11-11-11-11-11-11-12-|
G|5---5-5-5-5-x-x-5-|--5-5-5-5-x-x-x-|-7--7--7--7--7--7--7--9-|
C|5---5-5-5-5-x-x-7-|--7-7-7-7-x-x-x-|-7--7--7--7--7--7--7--9-|

============================================================================

D|-----------------------|------------------------|
A|-----------------------|------------------------|
F|-----------------------|---------------------14-|
C|--12-12-12-11-11-11-11-|12-12-12-12-12-12-12-12-|
G|---9--9--9--7--7--7--7-|-9--9--9--9--9--9--9--9-|
C|---9--9--9--7--7--7--7-|-9--9--9--9--9--9--9----|

D|-----------------------|------------------------|
A|-----------------------|------------------------|
F|-----------------------|---------------------14-|
C|--12-12-12-11-11-11-11-|12-12-12-12-12-12-12-12-|
G|---9--9--9--7--7--7--7-|-9--9--9--9--9--9--9--9-|
C|---9--9--9--7--7--7--7-|-9--9--9--9--9--9--9----|

============================================================================

D|-----------------------|------------------------|
A|-----------------------|------------------------|
F|--14-14-14-14-14-14-14-|---------------------14-|
C|--12-12-12-12-12-12-12-|12-12-12-12-12-12-12-12-|
G|---9--9--9--9--9--9--9-|-9--9--9--9--9--9--9--9-|
C|-----------------------|-9--9--9--9--9--9--9----|

D|-----------------------|------------------------|
A|-----------------------|------------------------|
F|--14-14-14-14-14-14-14-|---------------------14-|
C|--12-12-12-12-12-12-12-|12-12-12-12-12-12-12-12-|
G|---9--9--9--9--9--9--9-|-9--9--9--9--9--9--9--9-|
C|-----------------------|-9--9--9--9--9--9--9----|

============================================================================

D|-----------------------|----------------|----------------|
A|-----------------------|----------------|----------------|
F|--14-14-14-14-11-11-11-|7-7-7-7-7-7-7---|----------------|
C|--12-12-12-12-12-12-12-|9-9-9-9-9-9-9-4-|--4-4-4-4-4-4-4-|
G|---9--9--9--9--9--9--9-|5-5-5-5-5-5-5-5-|--5-5-5-5-5-5-5-|
C|-----------------------|5-5-5-5-5-5-5-7-|--7-7-7-7-7-7-7-|

D|-----------------------|----------------|----------------|
A|-----------------------|----------------|----------------|
F|--14-14-14-14-11-11-11-|7-7-7-7-7-7-7---|----------------|
C|--12-12-12-12-12-12-12-|9-9-9-9-9-9-9-4-|--4-4-4-4-4-4-4-|
G|---9--9--9--9--9--9--9-|5-5-5-5-5-5-5-5-|--5-5-5-5-5-5-5-|
C|-----------------------|5-5-5-5-5-5-5-7-|--7-7-7-7-7-7-7-|

============================================================================

D|------------------------|-----------------------|
A|------------------------|-----------------------|
F|------------------------|-----------------------|
C|11-11-11-11-11-11-11-12-|--12-12-12-11-11-11-11-|
G|-7--7--7--7--7--7--7--9-|---9--9--9--7--7--7--7-|
C|-7--7--7--7--7--7--7--9-|---9--9--9--7--7--7--7-|

D|------------------------|-----------------------|
A|------------------------|-----------------------|
F|------------------------|-----------------------|
C|11-11-11-11-11-11-11-12-|--12-12-12-11-11-11-11-|
G|-7--7--7--7--7--7--7--9-|---9--9--9--7--7--7--7-|
C|-7--7--7--7--7--7--7--9-|---9--9--9--7--7--7--7-|

============================================================================

D|------------------------|-----------------------|
A|------------------------|-----------------------|
F|---------------------14-|--14-14-14-14-14-14-14-|
C|12-12-12-12-12-12-12-12-|--12-12-12-12-12-12-12-|
G|-9--9--9--9--9--9--9--9-|---9--9--9--9--9--9--9-|
C|-9--9--9--9--9--9--9----|-----------------------|

D|------------------------|-----------------------|
A|------------------------|-----------------------|
F|---------------------14-|--14-14-14-14-14-14-14-|
C|12-12-12-12-12-12-12-12-|--12-12-12-12-12-12-12-|
G|-9--9--9--9--9--9--9--9-|---9--9--9--9--9--9--9-|
C|-9--9--9--9--9--9--9----|-----------------------|

============================================================================

D|------------------------|-----------------------|----------------|
A|------------------------|-----------------------|----------------|
F|---------------------14-|--14-14-14-14-11-11-11-|7-7-7-7-7-7-7---|
C|12-12-12-12-12-12-12-12-|--12-12-12-12-12-12-12-|9-9-9-9-9-9-9-4-|
G|-9--9--9--9--9--9--9--9-|---9--9--9--9--9--9--9-|5-5-5-5-5-5-5-5-|
C|-9--9--9--9--9--9--9----|-----------------------|5-5-5-5-5-5-5-7-|

D|------------------------|-----------------------|----------------|
A|------------------------|-----------------------|----------------|
F|---------------------14-|--14-14-14-14-11-11-11-|7-7-7-7-7-7-7---|
C|12-12-12-12-12-12-12-12-|--12-12-12-12-12-12-12-|9-9-9-9-9-9-9-4-|
G|-9--9--9--9--9--9--9--9-|---9--9--9--9--9--9--9-|5-5-5-5-5-5-5-5-|
C|-9--9--9--9--9--9--9----|-----------------------|5-5-5-5-5-5-5-7-|

============================================================================

D|----------------|------------------------|-----------------------|
A|----------------|------------------------|-----------------------|
F|----------------|------------------------|-----------------------|
C|--4-4-4-4-4-4-4-|11-11-11-11-11-11-11-12-|--12-12-12-11-11-11-11-|
G|--5-5-5-5-5-5-5-|-7--7--7--7--7--7--7--9-|---9--9--9--7--7--7--7-|
C|--7-7-7-7-7-7-7-|-7--7--7--7--7--7--7--9-|---9--9--9--7--7--7--7-|

D|----------------|------------------------|-----------------------|
A|----------------|------------------------|-----------------------|
F|----------------|------------------------|-----------------------|
C|--4-4-4-4-4-4-4-|11-11-11-11-11-11-11-12-|--12-12-12-11-11-11-11-|
G|--5-5-5-5-5-5-5-|-7--7--7--7--7--7--7--9-|---9--9--9--7--7--7--7-|
C|--7-7-7-7-7-7-7-|-7--7--7--7--7--7--7--9-|---9--9--9--7--7--7--7-|

============================================================================

D|-------------------|----------------|-------------------|
A|-------------------|----------------|-------------------|
F|---------9-11------|----------------|---------9-11------|
C|--11-7--------7-11-|7-6---9-----9---|--11-7--------7-11-|
G|9------9-----------|----7---6-9---6-|9------9-----------|
C|-------------------|----------------|-------------------|

D|-------------------|----------------|-------------------|
A|-------------------|----------------|-------------------|
F|---------9-11------|----------------|---------9-11------|
C|--11-7--------7-11-|7-6---9-----9---|--11-7--------7-11-|
G|9------9-----------|----7---6-9---6-|9------9-----------|
C|-------------------|----------------|-------------------|

============================================================================

D|----------------|-------------------|---------11-12-11----|
A|----------------|-------------------|12----------------12-|
F|----------------|---------11---9----|---9-8---------------|
C|7-6---9-----9---|--7-11-7----7---11-|-------9-------------|
G|----7---6-9---6-|9------------------|---------------------|
C|----------------|-------------------|---------------------|

D|----------------|-------------------|---------11-12-11----|
A|----------------|-------------------|12----------------12-|
F|----------------|---------11---9----|---9-8---------------|
C|7-6---9-----9---|--7-11-7----7---11-|-------9-------------|
G|----7---6-9---6-|9------------------|---------------------|
C|----------------|-------------------|---------------------|

============================================================================

D|----------------|-------------------|------9-------------|
A|------------9---|--9-10-9-----------|--------5-----------|
F|--6-------6---9-|---------9---9---6-|----------7---------|
C|----7---7-------|-----------7---4---|--------------------|
G|------5---------|-------------------|9-9-9-------9-9-9-9-|
C|9---------------|4------------------|9-9-9-------9-9-9-9-|

D|----------------|-------------------|------9-------------|
A|------------9---|--9-10-9-----------|--------5-----------|
F|--6-------6---9-|---------9---9---6-|----------7---------|
C|----7---7-------|-----------7---4---|--------------------|
G|------5---------|-------------------|9-9-9-------9-9-9-9-|
C|9---------------|4------------------|9-9-9-------9-9-9-9-|

============================================================================

D|9--------------------|------5-------------|--4-5-4-0-5-5-9-10-9-5-|
A|--5-----------9-10-9-|--------3-----------|-----------------------|
F|----7----------------|----------6---------|-----------------------|
C|------------7--------|--------------------|-----------------------|
G|------5-5-5----------|4-4-4-------4-4-4-4-|2----------------------|
C|---------------------|4-4-4-------4-4-4-4-|2----------------------|

D|9--------------------|------5-------------|--4-5-4-0-5-5-9-10-9-5-|
A|--5-----------9-10-9-|--------3-----------|-----------------------|
F|----7----------------|----------6---------|-----------------------|
C|------------7--------|--------------------|-----------------------|
G|------5-5-5----------|4-4-4-------4-4-4-4-|2----------------------|
C|---------------------|4-4-4-------4-4-4-4-|2----------------------|

============================================================================

D|------9-------------|9------------------------|------5-------------|
A|--------5-----------|--5---------------9-10-9-|--------3-----------|
F|----------7---------|----7--------------------|----------6---------|
C|--------------------|---------------7---------|--------------------|
G|9-9-9-------9-9-9-9-|-------5--5--5-----------|4-4-4-------4-4-4-4-|
C|9-9-9-------9-9-9-9-|-------------------------|4-4-4-------4-4-4-4-|

D|------9-------------|9----------------12-12---|------5-------------|
A|--------5-----------|--5--------------------9-|--------3-----------|
F|----------7---------|----7-11-11-11-----------|----------6---------|
C|--------------------|---------------7---------|--------------------|
G|9-9-9-------9-9-9-9-|-------------------------|4-4-4-------4-4-4-4-|
C|9-9-9-------9-9-9-9-|-------------------------|4-4-4-------4-4-4-4-|

============================================================================

D|--4-5-4-0-5-5-9-10-9-5-|----------------|----------------|
A|-----------------------|----------------|----------------|
F|-----------------------|----------------|----------------|
C|-----------------------|----------------|----------------|
G|2----------------------|----------------|----------------|
C|2----------------------|----------------|----------------|

D|--4-5-4-0-5-5-9-10-9-5-|----------------|----------------|
A|-----------------------|----------------|----------------|
F|-----------------------|----------------|----------------|
C|-----------------------|----------------|----------------|
G|2----------------------|----------------|----------------|
C|2----------------------|----------------|----------------|

============================================================================

D|12---------------|4---------------|----------------|5---------------|
A|-----------------|----------------|----------------|----------------|
F|-----------------|----------------|----------------|----------------|
C|-----------------|----------------|----------------|----------------|
G|-----------------|----------------|----------------|----------------|
C|-----------------|----------------|----------------|----------------|

D|-----------------|----------------|----------------|----------------|
A|-9---------------|5---------------|----------------|5---------------|
F|-----------------|----------------|----------------|----------------|
C|-----------------|----------------|----------------|----------------|
G|-----------------|----------------|----------------|----------------|
C|-----------------|----------------|----------------|----------------|

============================================================================

D|12---------------|4---------------|------------------------|
A|-----------------|----------------|------------------------|
F|-----------------|----------------|------------------------|
C|-----------------|----------------|------11----------------|
G|-----------------|----------------|9-9-9----9---9-12--0-0-0|
C|-----------------|----------------|9-9-9------0-------0-0-0|

D|12---------------|4---------------|------------------------|
A|-----------------|----------------|------------------------|
F|-----------------|----------------|------------------------|
C|-----------------|----------------|------11----------------|
G|-----------------|----------------|9-9-9----9---9-12--0-0-0|
C|-----------------|----------------|9-9-9------0-------0-0-0|

============================================================================

D|-------------------------|---------------------|
A|-------------------------|---------------------|
F|-------9-6---------------|---------------------|
C|-----4-----9-11-7--------|--------9-7----------|
G|---0------------------4-2|4-4-4-4-----0---0---0|
C|2--0--------------0-2----|4-4-4-4-----0-0-0-0-0|

D|-------------------------|---------------------|
A|-------------------------|---------------------|
F|-------9-6---------------|---------------------|
C|-----4-----9-11-7--------|--------9-7----------|
G|---0------------------4-2|4-4-4-4-----0---0---0|
C|2--0--------------0-2----|4-4-4-4-----0-0-0-0-0|

============================================================================

D|---------------------------|------------------------|
A|---------------------------|------------------------|
F|---------------------------|------------------------|
C|---------------------------|------11----------------|
G|9-9-9-9-9-11-11-11-11-11-11|9-9-9----9---9-12--0-0-0|
C|9-9-9-9-9-11-11-11-11-11-11|9-9-9------0-------0-0-0|

D|---------------------------|------------------------|
A|---------------------------|------------------------|
F|---------------------------|------------------------|
C|---------------------------|------11----------------|
G|9-9-9-9-9-11-11-11-11-11-11|9-9-9----9---9-12--0-0-0|
C|9-9-9-9-9-11-11-11-11-11-11|9-9-9------0-------0-0-0|

============================================================================

D|-------------------------|---------------------|
A|-------------------------|---------------------|
F|-------9-6---------------|---------------------|
C|-----4-----9-11-7--------|--------9-7----------|
G|---0------------------4-2|4-4-4-4-----0---0---0|
C|2--0--------------0-2----|4-4-4-4-----0-0-0-0-0|

D|-------------------------|---------------------|
A|-------------------------|---------------------|
F|-------9-6---------------|---------------------|
C|-----4-----9-11-7--------|--------9-7----------|
G|---0------------------4-2|4-4-4-4-----0---0---0|
C|2--0--------------0-2----|4-4-4-4-----0-0-0-0-0|

============================================================================

D|---------------------------|----------------|----------------|
A|---------------------------|----------------|----------------|
F|---------------------------|----------------|--------9-------|
C|---------------------------|7---------------|--------7-------|
G|9-9-9-9-9-11-11-11-11-11-11|0---------------|--------5-------|
C|9-9-9-9-9-11-11-11-11-11-11|0---------------|--------4-------|

D|---------------------------|----------------|----------------|
A|---------------------------|----------------|----------------|
F|---------------------------|----------------|--------9-------|
C|---------------------------|7---------------|--------7-------|
G|9-9-9-9-9-11-11-11-11-11-11|0---------------|--------5-------|
C|9-9-9-9-9-11-11-11-11-11-11|0---------------|--------4-------|

============================================================================

D|----------------|----------------|----------------|---------9-------|
A|----------------|----------------|----------------|--------10-------|
F|4---------------|----------------|----------------|---------9-------|
C|6---------------|----------------|7---------------|-----------------|
G|2---------------|----------------|0---------------|-----------------|
C|2---------------|----------------|0---------------|-----------------|

D|----------------|----------------|----------------|---------9-------|
A|----------------|----------------|----------------|--------10-------|
F|4---------------|----------------|----------------|---------9-------|
C|6---------------|----------------|7---------------|-----------------|
G|2---------------|----------------|0---------------|-----------------|
C|2---------------|----------------|0---------------|-----------------|

============================================================================

D|7---------------|----------------|----------------|----------------|
A|5---------------|----------------|----------------|----------------|
F|4---------------|----------------|----------------|--------9-------|
C|----------------|----------------|7---------------|--------7-------|
G|----------------|----------------|0---------------|--------5-------|
C|----------------|----------------|0---------------|--------4-------|

D|7---------------|----------------|----------------|----------------|
A|5---------------|----------------|----------------|----------------|
F|4---------------|----------------|----------------|--------9-------|
C|----------------|----------------|7---------------|--------7-------|
G|----------------|----------------|0---------------|--------5-------|
C|----------------|----------------|0---------------|--------4-------|

============================================================================

D|----------------|----------------|----------------|---------9-------|
A|----------------|----------------|----------------|--------10-------|
F|4---------------|----------------|----------------|---------9-------|
C|6---------------|----------------|7---------------|-----------------|
G|2---------------|----------------|0---------------|-----------------|
C|2---------------|----------------|0---------------|-----------------|

D|----------------|----------------|----------------|---------9-------|
A|----------------|----------------|----------------|--------10-------|
F|4---------------|----------------|----------------|---------9-------|
C|6---------------|----------------|7---------------|-----------------|
G|2---------------|----------------|0---------------|-----------------|
C|2---------------|----------------|0---------------|-----------------|

============================================================================

D|7---------------|----------------|----------------------|
A|5---------------|----------------|----------------------|
F|4---------------|----------------|------------------4-6-|
C|----------------|----------------|7---------------------|
G|----------------|----------------|--0-0-0-0---9---------|
C|----------------|----------------|--0-0-0-0-----0-0-----|

D|7---------------|----------------|----------------------|
A|5---------------|----------------|----------------------|
F|4---------------|----------------|----------------------|
C|----------------|----------------|------------------6-7-|
G|----------------|----------------|9-0-0-0-0-------------|
C|----------------|----------------|--0-0-0-0--12-0-0-----|

============================================================================

D|----------------------9-5----|----------------------|
A|-----------------5--------9-5|----------------------|
F|-----------------------------|------------------4-6-|
C|4----------4-6-7----6--------|7---------------------|
G|--7-7-7-7--------------------|--0-0-0-0---9---------|
C|--7-7-7-7--------------------|--0-0-0-0-----0-0-----|

D|----------------------9-5----|----------------------|
A|-----------------5--------9-5|----------------------|
F|-----------------------------|----------------------|
C|4----------4-6-7----6--------|------------------6-7-|
G|--7-7-7-7--------------------|9-0-0-0-0-------------|
C|--7-7-7-7--------------------|--0-0-0-0--12-0-0-----|

============================================================================

D|-----------------------------|----------------------|
A|-----------------------------|----------------------|
F|-----------------------------|------------------4-6-|
C|4----------------------------|7---------------------|
G|--4-4-4-4--------7--2-0-7-0--|--0-0-0-0---9---------|
C|--4-4-4-4--4-6-7------------6|--0-0-0-0-----0-0-----|

D|-----------------------------|----------------------|
A|-----------------------------|----------------------|
F|-----------------------------|----------------------|
C|4----------------------------|------------------6-7-|
G|--4-4-4-4--------7--2-0-7-0--|9-0-0-0-0-------------|
C|--4-4-4-4--4-6-7------------6|--0-0-0-0--12-0-0-----|

============================================================================

D|----------------------9-5----|----------------------|
A|-----------------5--------9-5|----------------------|
F|-----------------------------|------------------4-6-|
C|4----------4-6-7----6--------|7---------------------|
G|--7-7-7-7--------------------|--0-0-0-0---9---------|
C|--7-7-7-7--------------------|--0-0-0-0-----0-0-----|

D|----------------------9-5----|----------------------|
A|-----------------5--------9-5|----------------------|
F|-----------------------------|----------------------|
C|4----------4-6-7----6--------|------------------6-7-|
G|--7-7-7-7--------------------|9-0-0-0-0-------------|
C|--7-7-7-7--------------------|--0-0-0-0--12-0-0-----|

============================================================================

D|-----------------------------|----------------------|
A|-----------------------------|----------------------|
F|-----------------------------|------------------4-6-|
C|4----------------------------|7---------------------|
G|--4-4-4-4--------7--2-0-7-0--|--0-0-0-0---9---------|
C|--4-4-4-4--4-6-7------------6|--0-0-0-0-----0-0-----|

D|-----------------------------|----------------------|
A|-----------------------------|----------------------|
F|-----------------------------|----------------------|
C|4----------------------------|------------------6-7-|
G|--4-4-4-4--------7--2-0-7-0--|9-0-0-0-0-------------|
C|--4-4-4-4--4-6-7------------6|--0-0-0-0--12-0-0-----|

============================================================================

D|----------------------9-5----|----------------------|
A|-----------------5--------9-5|----------------------|
F|-----------------------------|------------------4-6-|
C|4----------4-6-7----6--------|7---------------------|
G|--7-7-7-7--------------------|--0-0-0-0---9---------|
C|--7-7-7-7--------------------|--0-0-0-0-----0-0-----|

D|----------------------9-5----|----------------------|
A|-----------------5--------9-5|----------------------|
F|-----------------------------|----------------------|
C|4----------4-6-7----6--------|------------------6-7-|
G|--7-7-7-7--------------------|9-0-0-0-0-------------|
C|--7-7-7-7--------------------|--0-0-0-0--12-0-0-----|

============================================================================

D|-----------------------------|11-11-----------------|
A|-----------------------------|15-15-----------------|
F|-----------------------------|----------------------|
C|4----------------------------|----------------------|
G|--4-4-4-4--------7--2-0-7-0--|------0-0--1-0-0-0--0-|
C|--4-4-4-4--4-6-7------------6|------0-0*-1-0*0-0*-0-|

D|-----------------------------|11-11-----------------|
A|-----------------------------|15-15-----------------|
F|-----------------------------|----------------------|
C|4----------------------------|----------------------|
G|--4-4-4-4--------7--2-0-7-0--|------0-0--0-0-0-0--1-|
C|--4-4-4-4--4-6-7------------6|------0-0*-0-0*0-0*-1-|

============================================================================

D|--------------------|--------------------|------------------|
A|--------------------|--------------------|------------------|
F|--------------------|--------------------|------------------|
C|--------------------|--------------------|----3-------------|
G|0-0-0--1-0---0-0-0-0|--0--0--0-0-0-0--1-0|--1---------5-----|
C|0*0-0*-1-0*--0-0-0-0|--1--1--1-1-1-1--1-0|5-----3-3-1---0-1-|

D|--------------------|--------------------|------------------|
A|--------------------|--------------------|------------------|
F|--------------------|--------------------|------------------|
C|--------------------|--------------------|----3-------------|
G|0-0-0--0-0---0-0-0-0|--0--0--0-0-0-0--0-1|--1---------5-----|
C|0*0-0*-0-0*--0-0-0-0|--1--1--1-1-1-1--0-1|5-----3-3-1---0-1-|

============================================================================

D|--------------------|--------------------|--------------------|
A|--------------------|--------------------|--------------------|
F|--------------------|--------------------|--------------------|
C|--------------------|--------------------|--------------------|
G|5-5-0-0--1-0-0-0--0-|0-0-0----0---0-0-0-0|--0--0--0-0-0-0--1-0|
C|----0-0*-1-0*0-0*-0-|0*0-0*-1-0*--0-0-0-0|--1--1--1-1-1-1--1-0|

D|--------------------|--------------------|--------------------|
A|--------------------|--------------------|--------------------|
F|--------------------|--------------------|--------------------|
C|--------------------|--------------------|--------------------|
G|----0-0--0-0-0-0--1-|0-0-0--0-0---0-0-0-0|--0--0--0-0-0-0--0-1|
C|4-4-0-0*-0-0*0-0*-1-|0*0-0*-0-0*--0-0-0-0|--1--1--1-1-1-1--0-1|

============================================================================

D|------------------|-----------------|------------------|
A|------------------|-----------------|------------------|
F|------------------|-----------------|------------------|
C|----3-------------|-----------------|----3-------------|
G|--1---------5-----|-5---------1-5---|--1---------5-----|
C|5-----0-0-1---0-1-|----0--0-1-----3-|5-----0-0-1---0---|

D|------------------|-----------------|------------------|
A|------------------|-----------------|------------------|
F|------------------|-----------------|------------------|
C|----3-------------|-----------------|----3-------------|
G|--1---------5-----|-5---------1-5---|--1---------5-----|
C|5-----0-0-1---0-1-|----0--0-1-----3-|5-----0-0-1---0---|

============================================================================

D|--------------------|------------------|-----------------|
A|--------------------|------------------|-----------------|
F|--------------------|------------------|-----------------|
C|--------------------|----3-------------|-----------------|
G|0-0-0-0--0--0--0-0-0|--1---------5-----|-5---------1-5---|
C|1-1-1-1x-1x-1x-1-1-1|5-----0-0-1---0-1-|----0--0-1-----3-|

D|--------------------|------------------|-----------------|
A|--------------------|------------------|-----------------|
F|--------------------|------------------|-----------------|
C|--------------------|----3-------------|-----------------|
G|0-0-0-0--0--0--0-0-0|--1---------5-----|-5---------1-5---|
C|1-1-1-1x-1x-1x-1-1-1|5-----0-0-1---0-1-|----0--0-1-----3-|

============================================================================

D|-------------------|------------------------|-----------------------|
A|-------------------|------------------------|-----------------------|
F|-------------------|---------------------14-|--14-14-14-14-14-14-14-|
C|----3--------------|12-12-12-12-12-12-12-12-|--12-12-12-12-12-12-12-|
G|--1---------5------|-9--9--9--9--9--9--9--9-|---9--9--9--9--9--9--9-|
C|5-----0-0-1---0-0-0|-9--9--9--9--9--9--9----|-----------------------|

D|-------------------|------------------------|-----------------------|
A|-------------------|------------------------|-----------------------|
F|-------------------|---------------------14-|--14-14-14-14-14-14-14-|
C|----3--------------|12-12-12-12-12-12-12-12-|--12-12-12-12-12-12-12-|
G|--1---------5------|-9--9--9--9--9--9--9--9-|---9--9--9--9--9--9--9-|
C|5-----0-0-1---0-0-0|-9--9--9--9--9--9--9----|-----------------------|

============================================================================

D|------------------------|-----------------------|----------------|
A|------------------------|-----------------------|----------------|
F|---------------------14-|--14-14-14-14-11-11-11-|7-7-7-7-7-7-7---|
C|12-12-12-12-12-12-12-12-|--12-12-12-12-12-12-12-|9-9-9-9-9-9-9-4-|
G|-9--9--9--9--9--9--9--9-|---9--9--9--9--9--9--9-|5-5-5-5-5-5-5-5-|
C|-9--9--9--9--9--9--9----|-----------------------|5-5-5-5-5-5-5-7-|

D|------------------------|-----------------------|----------------|
A|------------------------|-----------------------|----------------|
F|---------------------14-|--14-14-14-14-11-11-11-|7-7-7-7-7-7-7---|
C|12-12-12-12-12-12-12-12-|--12-12-12-12-12-12-12-|9-9-9-9-9-9-9-4-|
G|-9--9--9--9--9--9--9--9-|---9--9--9--9--9--9--9-|5-5-5-5-5-5-5-5-|
C|-9--9--9--9--9--9--9----|-----------------------|5-5-5-5-5-5-5-7-|

============================================================================

D|----------------|------------------------|-----------------------|
A|----------------|------------------------|-----------------------|
F|----------------|------------------------|-----------------------|
C|--4-4-4-4-4-4-4-|11-11-11-11-11-11-11-12-|--12-12-12-11-11-11-11-|
G|--5-5-5-5-5-5-5-|-7--7--7--7--7--7--7--9-|---9--9--9--7--7--7--7-|
C|--7-7-7-7-7-7-7-|-7--7--7--7--7--7--7--9-|---9--9--9--7--7--7--7-|

D|----------------|------------------------|-----------------------|
A|----------------|------------------------|-----------------------|
F|----------------|------------------------|-----------------------|
C|--4-4-4-4-4-4-4-|11-11-11-11-11-11-11-12-|--12-12-12-11-11-11-11-|
G|--5-5-5-5-5-5-5-|-7--7--7--7--7--7--7--9-|---9--9--9--7--7--7--7-|
C|--7-7-7-7-7-7-7-|-7--7--7--7--7--7--7--9-|---9--9--9--7--7--7--7-|

============================================================================

D|------------------------|-----------------------|
A|------------------------|-----------------------|
F|---------------------14-|--14-14-14-14-14-14-14-|
C|12-12-12-12-12-12-12-12-|--12-12-12-12-12-12-12-|
G|-9--9--9--9--9--9--9--9-|---9--9--9--9--9--9--9-|
C|-9--9--9--9--9--9--9----|-----------------------|

D|------------------------|-----------------------|
A|------------------------|-----------------------|
F|---------------------14-|--14-14-14-14-14-14-14-|
C|12-12-12-12-12-12-12-12-|--12-12-12-12-12-12-12-|
G|-9--9--9--9--9--9--9--9-|---9--9--9--9--9--9--9-|
C|-9--9--9--9--9--9--9----|-----------------------|

============================================================================

D|------------------------|-----------------------|----------------|
A|------------------------|-----------------------|----------------|
F|---------------------14-|--14-14-14-14-11-11-11-|7-7-7-7-7-7-7---|
C|12-12-12-12-12-12-12-12-|--12-12-12-12-12-12-12-|9-9-9-9-9-9-9-4-|
G|-9--9--9--9--9--9--9--9-|---9--9--9--9--9--9--9-|5-5-5-5-5-5-5-5-|
C|-9--9--9--9--9--9--9----|-----------------------|5-5-5-5-5-5-5-7-|

D|------------------------|-----------------------|----------------|
A|------------------------|-----------------------|----------------|
F|---------------------14-|--14-14-14-14-11-11-11-|7-7-7-7-7-7-7---|
C|12-12-12-12-12-12-12-12-|--12-12-12-12-12-12-12-|9-9-9-9-9-9-9-4-|
G|-9--9--9--9--9--9--9--9-|---9--9--9--9--9--9--9-|5-5-5-5-5-5-5-5-|
C|-9--9--9--9--9--9--9----|-----------------------|5-5-5-5-5-5-5-7-|

============================================================================

D|----------------|------------------------|-----------------------|
A|----------------|------------------------|-----------------------|
F|----------------|------------------------|-----------------------|
C|--4-4-4-4-4-4-4-|11-11-11-11-11-11-11-12-|--12-12-12-11-11-11-11-|
G|--5-5-5-5-5-5-5-|-7--7--7--7--7--7--7--9-|---9--9--9--7--7--7--7-|
C|--7-7-7-7-7-7-7-|-7--7--7--7--7--7--7--9-|---9--9--9--7--7--7--7-|

D|----------------|------------------------|-----------------------|
A|----------------|------------------------|-----------------------|
F|----------------|------------------------|-----------------------|
C|--4-4-4-4-4-4-4-|11-11-11-11-11-11-11-12-|--12-12-12-11-11-11-11-|
G|--5-5-5-5-5-5-5-|-7--7--7--7--7--7--7--9-|---9--9--9--7--7--7--7-|
C|--7-7-7-7-7-7-7-|-7--7--7--7--7--7--7--9-|---9--9--9--7--7--7--7-|

============================================================================

D|-----------------------|--------------------|-----------------------|
A|------------10-7-------|----------10-7----7-|-----------------------|
F|7-7-7-7-7-7--7-7--7-7-7|7--7--7-7--7-7--9-7-|7-7-7---------0-7------|
C|9-9-9-9-9-9--9-7--9-9-9|9--9--9-9--9-7-11-7-|4-4-4-4-4-4-4-----4-4-4|
G|5-5-5-5-5-5--5-0--5---5|5--5--5-5--5-0--7-0-|5-5-5-5-5-5-------5-5-5|
C|5-5-5-5-5-5-------5-5-5|5*-5*-5-5-------7---|0-0-0-0-0-0-------0-0-0|

D|-----------------------|--------------------|-----------------------|
A|------------10-7-------|----------10-7----7-|-----------------------|
F|7-7-7-7-7-7--7-7--7-7-7|7--7--7-7--7-7--9-7-|7-7-7---------0-7------|
C|9-9-9-9-9-9--9-7--9-9-9|9--9--9-9--9-7-11-7-|4-4-4-4-4-4-4-----4-4-4|
G|5-5-5-5-5-5--5-0--5-5-5|5--5--5-5--5-0--7-0-|5-5-5-5-5-5-------5-5-5|
C|5-5-5-5-5-5-------5-5-5|5*-5*-5-5-------7---|0-0-0-0-0-0-------0-0-0|

============================================================================

D|-------------------------------------|-----------------------|
A|-------------------------------------|------------10-7-------|
F|-9--9--9----------7-6----------------|7-7-7-7-7-7--7-7--7-7-7|
C|11-11-11-11-11-11-----7-9-11-11-11-11|9-9-9-9-9-9--9-7--9-9-9|
G|-7--7--7--7--7--7----------7--7--7--7|5-5-5-5-5-5--5-0--5-5-5|
C|-7--7--7--7--7--7----------7--7--7--7|5-5-5-5-5-5-------5-5-5|

D|-------------------------------------|-----------------------|
A|-------------------------------------|------------10-7-------|
F|-9--9--9----------7-6----------------|7-7-7-7-7-7--7-7--7-7-7|
C|11-11-11-11-11-11-----7-9-11-11-11-11|9-9-9-9-9-9--9-7--9-9-9|
G|-7--7--7--7--7--7----------7--7--7--7|5-5-5-5-5-5--5-0--5-5-5|
C|-7--7--7--7--7--7----------7--7--7--7|5-5-5-5-5-5-------5-5-5|

============================================================================

D|--------------------|------------------------|
A|----------10-7----7-|------------------------|
F|7--7--7-7--7-7--9-7-|7-7-7-------11-9--------|
C|9--9--9-9--9-7-11-7-|4-4-4-4-4-4--4-4-4-7-12-|
G|5--5--5-5--5-0--7-0-|5-5-5-5-5-5--5-5--------|
C|5*-5*-5-5-------7---|0-0-0-0-0-0-------------|

D|--------------------|------------------------|
A|----------10-7----7-|------------------------|
F|7--7--7-7--7-7--9-7-|7-7-7-------11-9--------|
C|9--9--9-9--9-7-11-7-|4-4-4-4-4-4--4-4-4-7-12-|
G|5--5--5-5--5-0--7-0-|5-5-5-5-5-5--5-5--------|
C|5*-5*-5-5-------7---|0-0-0-0-0-0-------------|

============================================================================

D|----------------------------|--------|-------------------------------|
A|----------------------------|--------|-------------------------------|
F|-9--9--9----------11-11-9-9-|7-7-9-9-|-------------------------------|
C|11-11-11-11-11-11--7--7-7-7-|9-9-7-7-|-------------------------------|
G|-7--7--7--7--7--7--7--7-7-7-|5-5-7-7-|5-5-5-5-5-5-5-5-5-5-5-5-5-5-5-5|
C|-7--7--7--7--7--7--7--7-7-7-|5-5-7-7-|0-0-0-0-0-0-0-0-0-0-0-0-0-0-0-0|

D|----------------------------|--------|-------------------------------|
A|----------------------------|--------|-------------------------------|
F|-9--9--9----------11-11-9-9-|7-7-9-9-|-------------------------------|
C|11-11-11-11-11-11--7--7-7-7-|9-9-7-7-|-------------------------------|
G|-7--7--7--7--7--7--7--7-7-7-|5-5-7-7-|5-5-5-5-5-5-5-5-5-5-5-5-5-5-5-5|
C|-7--7--7--7--7--7--7--7-7-7-|5-5-7-7-|0-0-0-0-0-0-0-0-0-0-0-0-0-0-0-0|

============================================================================

D|-------------------------------|-------------------------------|
A|-------------------------------|-------------------------------|
F|-------------------------------|-------------------------------|
C|-------------------------------|-------------------------------|
G|5-5-5-5-5-5-5-5-5-5-5-5-5-5-5-5|8-8-8-8-8-8-8-8-8-8-8-8-8-8-8-8|
C|0-0-0-0-0-0-0-0-0-0-0-0-0-0-0-0|5-5-5-5-5-5-5-5-5-5-5-5-5-5-5-5|

D|-------------------------------|-------------------------------|
A|-------------------------------|-------------------------------|
F|-------------------------------|-------------------------------|
C|-------------------------------|-------------------------------|
G|5-5-5-5-5-5-5-5-5-5-5-5-5-5-5-5|8-8-8-8-8-8-8-8-8-8-8-8-8-8-8-8|
C|0-0-0-0-0-0-0-0-0-0-0-0-0-0-0-0|5-5-5-5-5-5-5-5-5-5-5-5-5-5-5-5|

============================================================================

D|-------------------------------|
A|-------------------------------|
F|-------------------------------|
C|-------------------------------|
G|8-8-8-8-8-8-8-8-8-8-8-8-8-8-8-8|
C|5-5-5-5-5-5-5-5-5-5-5-5-5-5-5-5|

D|-------------------------------|
A|-------------------------------|
F|-------------------------------|
C|-------------------------------|
G|8-8-8-8-8-8-8-8-8-8-8-8-8-8-8-8|
C|5-5-5-5-5-5-5-5-5-5-5-5-5-5-5-5|

============================================================================

D|-----------------------------------------------|
A|-----------------------------------------------|
F|-----------------------------------------------|
C|-----------------------------------------------|
G|12-12-12-12-12-12-12-12-12-12-12-12-12-12-12-12|
C|-8--8--8--8--8--8--8--8--8--8--8--8--8--8--8--8|

D|-----------------------------------------------|
A|-----------------------------------------------|
F|-----------------------------------------------|
C|-----------------------------------------------|
G|12-12-12-12-12-12-12-12-12-12-12-12-12-12-12-12|
C|-8--8--8--8--8--8--8--8--8--8--8--8--8--8--8--8|

============================================================================

D|-----------------------------------------------|
A|-----------------------------------------------|
F|-----------------------------------------------|
C|-----------------------------------------------|
G|12-12-12-12-12-12-12-12-12-12-12-12-12-12-12-12|
C|-8--8--8--8--8--8--8--8--8--8--8--8--8--8--8--8|

D|-----------------------------------------------|
A|-----------------------------------------------|
F|-----------------------------------------------|
C|-----------------------------------------------|
G|12-12-12-12-12-12-12-12-12-12-12-12-12-12-12-12|
C|-8--8--8--8--8--8--8--8--8--8--8--8--8--8--8--8|

============================================================================

D|-----------------------------------------------|
A|-----------------------------------------------|
F|-----------------------------------------------|
C|-----------------------------------------------|
G|10-10-10-10-10-10-10-10-10-10-10-10-10-10-10-10|
C|-7--7--7--7--7--7--7--7--7--7--7--7--7--7--7--7|

D|-----------------------------------------------|
A|-----------------------------------------------|
F|-----------------------------------------------|
C|-----------------------------------------------|
G|10-10-10-10-10-10-10-10-10-10-10-10-10-10-10-10|
C|-7--7--7--7--7--7--7--7--7--7--7--7--7--7--7--7|

============================================================================

D|-----------------------------------------------|
A|-----------------------------------------------|
F|-----------------------------------------------|
C|-----------------------------------------------|
G|10-10-10-10-10-10-10-10-10-10-10-10-10-10-10-10|
C|-7--7--7--7--7--7--7--7--7--7--7--7--7--7--7--7|

D|-----------------------------------------------|
A|-----------------------------------------------|
F|-----------------------------------------------|
C|-----------------------------------------------|
G|10-10-10-10-10-10-10-10-10-10-10-10-10-10-10-10|
C|-7--7--7--7--7--7--7--7--7--7--7--7--7--7--7--7|

============================================================================

D|-------------------------------|-------------------------------|
A|-------------------------------|-------------------------------|
F|7-7-7-7-7-7-7-7-7-7-7-7-7-7-7-7|7-7-7-7-7-7-7-7-7-7-7-7-7-7-7-7|
C|0-0-0-0-0-0-0-0-0-0-0-0-0-0-0-0|0-0-0-0-0-0-0-0-0-0-0-0-0-0-0-0|
G|-------------------------------|-------------------------------|
C|-------------------------------|-------------------------------|

D|-------------------------------|-------------------------------|
A|-------------------------------|-------------------------------|
F|-------------------------------|-------------------------------|
C|-------------------------------|-------------------------------|
G|5-5-5-5-5-5-5-5-5-5-5-5-5-5-5-5|5-5-5-5-5-5-5-5-5-5-5-5-5-5-5-5|
C|0-0-0-0-0-0-0-0-0-0-0-0-0-0-0-0|0-0-0-0-0-0-0-0-0-0-0-0-0-0-0-0|

============================================================================

D|-----------------------------------------------|
A|-----------------------------------------------|
F|10-10-10-10-10-10-10-10-10-10-10-10-10-10-10-10|
C|-5--5--5--5--5--5--5--5--5--5--5--5--5--5--5--5|
G|-----------------------------------------------|
C|-----------------------------------------------|

D|-----------------------------------------------|
A|-----------------------------------------------|
F|-----------------------------------------------|
C|-----------------------------------------------|
G|-8--8--8--8--8--8--8--8--8--8--8--8--8--8--8--8|
C|-5--5--5--5--5--5--5--5--5--5--5--5--5--5--5--5|

============================================================================

D|-----------------------------------------------|
A|-----------------------------------------------|
F|10-10-10-10-10-10-10-10-10-10-10-10-10-10-10-10|
C|-5--5--5--5--5--5--5--5--5--5--5--5--5--5--5--5|
G|-----------------------------------------------|
C|-----------------------------------------------|

D|-----------------------------------------------|
A|-----------------------------------------------|
F|-----------------------------------------------|
C|-----------------------------------------------|
G|-8--8--8--8--8--8--8--8--8--8--8--8--8--8--8--8|
C|-5--5--5--5--5--5--5--5--5--5--5--5--5--5--5--5|

============================================================================

D|-----------------------------------------------|
A|-----------------------------------------------|
F|14-14-14-14-14-14-14-14-14-14-14-14-14-14-14-14|
C|-8--8--8--8--8--8--8--8--8--8--8--8--8--8--8--8|
G|-----------------------------------------------|
C|-----------------------------------------------|

D|-----------------------------------------------|
A|-----------------------------------------------|
F|-----------------------------------------------|
C|-----------------------------------------------|
G|12-12-12-12-12-12-12-12-12-12-12-12-12-12-12-12|
C|-8--8--8--8--8--8--8--8--8--8--8--8--8--8--8--8|

============================================================================

D|-----------------------------------------------|
A|-----------------------------------------------|
F|14-14-14-14-14-14-14-14-14-14-14-14-14-14-14-14|
C|-8--8--8--8--8--8--8--8--8--8--8--8--8--8--8--8|
G|-----------------------------------------------|
C|-----------------------------------------------|

D|-----------------------------------------------|
A|-----------------------------------------------|
F|-----------------------------------------------|
C|-----------------------------------------------|
G|12-12-12-12-12-12-12-12-12-12-12-12-12-12-12-12|
C|-8--8--8--8--8--8--8--8--8--8--8--8--8--8--8--8|

============================================================================

D|-------------------------------|----------------------|
A|-------------------------------|----------------------|
F|12-12-12-12-12-12-12-12--------|7-7--------------7-7--|
C|-7--7--7--7--7--7--7--7--------|0-0--------------0-0--|
G|-------------------------------|----0-0--0--0--0-----0|
C|-----------------------*-------|----0-0--0--0--0-----0|

D|-------------------------------|----------------------|
A|-------------------------------|----------------------|
F|-------------------------------|7-7--------------7-7--|
C|-------------------------------|0-0--------------0-0--|
G|10-10-10-10-10-10-10-10--------|----0-0--0--0--0-----0|
C|-7--7--7--7--7--7--7--7*-------|----0-0--0--0--0-----0|

============================================================================

D|-------------------------|--------------------------|
A|-------------------------|--------------------------|
F|----------7-7-----7-7----|10-10--------------10-10--|
C|----------0-0-----0-0----|-5--5---------------5--5--|
G|0--0--0-0-----0-0-----0-0|------5-5--5--5--5-------5|
C|0--0--0-0-----0-0-----0-0|------5-5--5--5--5-------5|

D|-------------------------|--------------------------|
A|-------------------------|--------------------------|
F|----------7-7-----7-7----|--------------------------|
C|----------0-0-----0-0----|--------------------------|
G|0--0--0-0-----0-0-----0-0|-8--8-5-5--5--5--5--8--8-5|
C|0--0--0-0-----0-0-----0-0|-5--5-5-5--5--5--5--5--5-5|

============================================================================

D|-----------------------------|--------------------------|
A|-----------------------------|--------------------------|
F|----------10-10-----10-10----|14-14--------------14-14--|
C|-----------5--5------5--5----|-8--8---------------8--8--|
G|5--5--5-5-------5-5-------5-5|------8-8--8--8--8-------8|
C|5--5--5-5-------5-5-------5-5|------8-8--8--8--8-------8|

D|-----------------------------|--------------------------|
A|-----------------------------|--------------------------|
F|-----------------------------|--------------------------|
C|-----------------------------|--------------------------|
G|5--5--5-5--8--8-5-5--8--8-5-5|12-12-8-8--8--8--8-12-12-8|
C|5--5--5-5--5--5-5-5--5--5-5-5|-8--8-8-8--8--8--8--8--8-8|

============================================================================

D|-----------------------------|--------------------------|
A|-----------------------------|--------------------------|
F|----------14-14-----14-14----|12-12--------------12-12--|
C|-----------8--8------8--8----|-7--7---------------7--7--|
G|8--8--8-8-------8-8-------8-8|------7-7--7--7--7-------7|
C|8--8--8-8-------8-8-------8-8|------7-7--7--7--7-------7|

D|-----------------------------|--------------------------|
A|-----------------------------|--------------------------|
F|-----------------------------|--------------------------|
C|-----------------------------|--------------------------|
G|8--8--8-8-12-12-8-8-12-12-8-8|10-10-7-7--7--7--7-10-10-7|
C|8--8--8-8--8--8-8-8--8--8-8-8|-7--7-7-7--7--7--7--7--7-7|

============================================================================

D|------------------------------|----------------------|
A|------------------------------|----------------------|
F|----------14-12-10-9-10--9-7-5|7-7--------------7-7--|
C|------------------------------|0-0--------------0-0--|
G|7--7--7-7---------------------|----0-0--0--0--0-----0|
C|7--7--7-7---------------------|----0-0--0--0--0-----0|

D|------------------------------|----------------------|
A|------------------------------|----------------------|
F|------------------------------|7-7--------------7-7--|
C|------------------------------|0-0--------------0-0--|
G|7--7--7-7-10-10--7-7-10-10-7-7|----0-0--0--0--0-----0|
C|7--7--7-7--7--7--7-7--7--7-7-7|----0-0--0--0--0-----0|

============================================================================

D|-------------------------|--------------------------|
A|-------------------------|--------------------------|
F|----------7-7-----7-7----|10-10--------------10-10--|
C|----------0-0-----0-0----|-5--5---------------5--5--|
G|0--0--0-0-----0-0-----0-0|------5-5--5--5--5-------5|
C|0--0--0-0-----0-0-----0-0|------5-5--5--5--5-------5|

D|-------------------------|--------------------------|
A|-------------------------|--------------------------|
F|----------7-7-----7-7----|--------------------------|
C|----------0-0-----0-0----|--------------------------|
G|0--0--0-0-----0-0-----0-0|-8--8-5-5--5--5--5--8--8-5|
C|0--0--0-0-----0-0-----0-0|-5--5-5-5--5--5--5--5--5-5|

============================================================================

D|-----------------------------|--------------------------|
A|-----------------------------|--------------------------|
F|----------10-10-----10-10----|14-14--------------14-14--|
C|-----------5--5------5--5----|-8--8---------------8--8--|
G|5--5--5-5-------5-5-------5-5|------8-8--8--8--8-------8|
C|5--5--5-5-------5-5-------5-5|------8-8--8--8--8-------8|

D|-----------------------------|--------------------------|
A|-----------------------------|--------------------------|
F|-----------------------------|--------------------------|
C|-----------------------------|--------------------------|
G|5--5--5-5--8--8-5-5--8--8-5-5|12-12-8-8--8--8--8-12-12-8|
C|5--5--5-5--5--5-5-5--5--5-5-5|-8--8-8-8--8--8--8--8--8-8|

============================================================================

D|-----------------------------|--------------------------|
A|-----------------------------|--------------------------|
F|----------14-14-----14-14----|12-12--------------12-12--|
C|-----------8--8------8--8----|-7--7---------------7--7--|
G|8--8--8-8-------8-8-------8-8|------7-7--7--7--7-------7|
C|8--8--8-8-------8-8-------8-8|------7-7--7--7--7-------7|

D|-----------------------------|--------------------------|
A|-----------------------------|--------------------------|
F|-----------------------------|--------------------------|
C|-----------------------------|--------------------------|
G|8--8--8-8-12-12-8-8-12-12-8-8|10-10-7-7--7--7--7-10-10-7|
C|8--8--8-8--8--8-8-8--8--8-8-8|-7--7-7-7--7--7--7--7--7-7|

============================================================================

D|------------------------------|
A|------------------------------|
F|----------14-12-10-9-10--9-7-5|
C|------------------------------|
G|7--7--7-7---------------------|
C|7--7--7-7---------------------|

D|------------------------------|
A|------------------------------|
F|------------------------------|
C|------------------------------|
G|7--7--7-7-10-10--7-7-10-10-7-7|
C|7--7--7-7--7--7--7-7--7--7-7-7|



************************************

| x  Dead note

************************************

            
            
Suggest correction
Creating personal tab
Creating personal tab
You can edit any tab online and save it as your Personal.

You can edit, replace or remove any tab part or add personal notes – all changes will be seen only by you.

Personal tabs can be accessed anytime from any device, even offline.
Learn more »
Give kudos to tab author, rate the tab!
1 2 3 4 5
comments
print report bad tab
guest
You may want to rate the tab now too:
select rating
Wanna post a correction for this tab? Suggest correction