Oops, an error
Loading. Please wait.

Copper Kettle In Open G Tab

7 views 1 this week
no commentswrite comment
1 2 3 4 5
3 more votes to show rating
add to favorites
launch autoscroll
font size
0
reset
how to read this tab
guitar tuner
Autoscroll
slow
fast
+/-
esc
set tempo
stop
Help us to improve Ultimate-Guitar.com Take our survey!
×
Author
Difficulty
Tuning
intermediate
D G D G B D
About this tab version
This is my own arrangement or at least as close as I can get with just one guitar. Was this info helpful? Yes No
Copper Kettle G Tuning

DGDGBD

    G   C    D   C2   Em7     B7
D|-0----0----0----5----0------0-|
B|-0----1----3----5----3------1-|
G|-0----0----0----5----0------0-|
D|-0----2----4----5----4------2-|
G|-0----0----0----5----4------2-|
D|-0----0----0----X----0------0-|

 Riff 1
D|------------------------------------|
B|------------------------------------|
G|------------------------------------|
D|------------------------------------|
G|-----------------0—h2—p0------------|
D|-------0-h2-------------------------|

 Riff2                          C                         D
D|--------------0---------------------0---------------------0-----------------------0--------|
B|---0------0----0-----0h1-----1----1----1s3------3----3------3s1------1----1----------------|
G|-------0-----------0---------0----------0----------0----------0---------0----------0-------|
D|-----------------------0h2-----------------2h4-------------------4s2-----------------------|
G|---0----------------------------------------0----------------------0--------------------0--|
D|-------------------------------------------------------------------------------------------|

 Riff 3
D|-------------0--------------------------------------------------------------------------|
B|----------0-----1-----s3------s1----0---------------------------------------------------|
G|------0---------2-----s4------s2----0------0--------------------------------------------|
D|----------------------------------------------------------------------------------------|
G|---0-----------0--------0-------0-----0-------------------------------------------------|
D|----------------------------------------------------------------------------------------|

Riff 1

[Verse 1]
(Repeat Riff 2 x 3)
G           C           D           C
I’ll get you a copper kettle,
G           C           D           C
I’ll Get you a copper coil,
G           C           D           C
Fill it with new-made corn mash
C                              Em7         B7
And never more will you toil.

[Chorus]
C2                                        G Riff 3
You just lay there by the juniper
C2                                        G Riff 3
while the moon is bright,
C2                    Em7         B7
Watch them jugs a-filling
B7                                        Riff 1
In the pale moonlight.

[Verse 2]
(Repeat Riff 2 x 3)
G           C           D           C
Build you a fire with hickory,
G           C           D           C
Hickory, ash and oak,
G           C           D           C
Don't use no green or rotten wood;
C                              Em7         B7
They'll get you by the smoke.

[Chorus]
C2                                        G Riff 3
You just lay there by the juniper
C2                                        G Riff 3
while the moon is bright,
C2                    Em7         B7
Watch them jugs a-filling
B7                                        Riff 1
In the pale moonlight.

[Verse 3]
(Repeat Riff 2 x 3)
G           C           D           C
My daddy, he made whiskey;
G           C           D           C
My grand-daddy, he did too.
G           C           D           C
We ain't paid no whiskey tax
C                              Em7         B7
Since seventeen ninety-two.

[Chorus]
C2                                        G Riff 3
You just lay there by the juniper
C2                                        G Riff 3
while the moon is bright,
C2                    Em7         B7
Watch them jugs a-filling
B7                                        Riff 1
In the pale moonlight.


************************************

| h  Hammer-on
| s  Slide

************************************
Suggest correction
Give kudos to tab author, rate the tab!
1 2 3 4 5
comments
print report bad tab
guest
You may want to rate the tab now too:
select rating
Wanna post a correction for this tab? Suggest correction