Oops, an error
Loading. Please wait.

Blindfold chords

241 views 3 this week
1 commentread comment
1 2 3 4 5
3 more votes to show rating
add to favorites
×
Save as Personal and add changes to this tab that will be seen only by you. Learn more ›
×
You can save this tab as Personal to edit and correct it or add notes. All changes will be seen only by you. Learn more »
launch autoscroll
font size
0
reset
transpose
0
reset
simplify chords
display chords
guitar tuner
edit
Autoscroll
slow
fast
+/-
esc
set tempo
stop
Author
Difficulty
Strumming
There is no strumming pattern for this song yet. and get +5 IQ
I'm sorry though; I don't know the names of most of the chords! 
All chords have a badly tabbed version at the end!! I welcome all and any 
corrections!! Enjoy :)


Intro:

C#m 
(alternate the bass note between C# and G#)


Verse 1:

       C#m
Making friends with the moon, oh one can't start too soon! ¦
 If you don't, then you will find yourself ¦

F#7(-5,-9)[?]                              C#m
crawling in corners, rolling in circles, ¦ cannot... but soon(?) ¦

C#m
When you lose all your skin cause you let it all hang ¦
 and you just tried fifteen times to get a grip. ¦

F#7(-5,-9)[?]                                      C#m
Dispose your good thoughts, making the wrong one ¦ better(?)   ¦


Chorus 1:

Emaj7                   B
Oooooh have to make a ¦ choice now    ¦

Emaj7               B               Cdim
Oooooh won't flip a ¦ coin            ¦


Verse 2:

             C#m
Are you livin' up to gameshow, cause it just feels so good?! ¦
 You're collapsing in a crowd and you ask yourself ¦

F#7(-5,-9)[?]                                         C#m
"dispose your good thoughts", making the wrong ones ¦ better(?)     ¦


Making friends with the moon, oh one can't start too soon! ¦
 If you don't, then you will find yourself ¦

F#7(-5,-9)[?]                              C#m
crawling in corners, rolling in circles, ¦ forgettin' 'bout the sun! ¦


Chorus 2:

Emaj7                   B
Oooooh have to make a ¦ choice now   ¦

Emaj7                   B
Uuuuuuh wish I knew a ¦ wiseman      ¦


Bridge

Edim[?]               D#dim[?]
MMMMMMMMM we all go ¦ blind          ¦

Edim[?]                  D#dim[?]   B
MMMMMMMMM live life so ¦ blind       ¦


Instumental (x 2)

C#m, Cdim, Emaj7, Adim[?]

C#m, C#mmaj7[?], D#(?), E(?)

Cdim7[?], D#dim7[?], F#dim7[?], Ddim7[?]


Outro (x2)

C#m                              Cdim              Emaj7
(Blindfold x4) 
Someone says, "All you can do is try to survive time ¦

                                         Adim[?]       C#m
(Blindfold x4)
Face the shit that you're looking at and leave it behind!" ¦

       C#mmaj7    D#(?)       E(?)              Cdim7(?)   D#dim7(?)
(Blindfold x6)
I have got to let go of these blinds ¦ that are holding me down:

F#dim7(?)           Ddim7(?)
(Blindfold x2)
they are ruinin' my mind!


Notes:

There is a picking pattern that pulsates throughout nearly the whole song; 
alternating bass notes first 
then the three strings underneath in unison but the pick changes from "are holding 
me down, They are 
ruinin' my mind".

Tabs:

C#m         F#7(-5,-9)[?] Emaj7        B

x-------    x-------      0-------     x-------
----5---    -----5--      0-------     ----4---
-----6--    -----5--      -1------     ----4---
-----6--    ----4---      -1------     ----4---
--4-----    ---3----      --2-----     --2-----
x-------    x-------      0-------     x-------   


Cdim        Edim[?]       D#dim[?]     Adim[?]
    
x-------    x-------      0-------     x-------
----4---    -----5--      ----4---     ----4---
-----5--    --3-----      --2-----     --2-----
----4---    -----5--      -----4--     -1------
--3-----    x-------      x-------     ---3----
x-------    --3-----      --2-----     x-------
        

C#mmaj7[?]  D#[?]         E[?]         Cdim7[?]

x-------    x-------      x-------     x-------
----5---    --4-----      ---5----     -----4--
-----6--    ---5----      ----6---     --2-----
-----6--    x--5----      x---6---     -----4--
--3-----    -----6--      -----7--     ---3----
x-------    x-------      x-------     x-------


D#dim7[?]   F#dim7[?]     Ddim7[?]
            
x-------    x-------      x--------
------7-    -----10--     ------13-
--5-----    --8-----      --11-----
-----7--    -----10--     ------13-
---6----    ---9----      ---12----
x-------    x-------      x--------

            
            
Suggest correction
Creating personal tab
Creating personal tab
You can edit any tab online and save it as your Personal.

You can edit, replace or remove any tab part or add personal notes – all changes will be seen only by you.

Personal tabs can be accessed anytime from any device, even offline.
Learn more »
Give kudos to tab author, rate the tab!
1 2 3 4 5
comments
print report bad tab
1 comment total.
0 reply
TiernanCip 92 Aug 15, 2013 12:22 PM

Lyric correction.. it's not "live at the heart" rather it's "leave it behind!"

guest
You may want to rate the tab now too:
select rating
Wanna post a correction for this tab? Suggest correction