Oops, an error
Loading. Please wait.

1957 chords

53,556 views 78 this week
6 commentsread comments
1 2 3 4 5
x 44
add to favorites
×
Save as Personal and add changes to this tab that will be seen only by you. Learn more ›
×
You can save this tab as Personal to edit and correct it or add notes. All changes will be seen only by you. Learn more »
launch autoscroll
font size
0
reset
transpose
0
reset
display chords
guitar tuner
edit
Autoscroll
slow
fast
+/-
esc
set tempo
stop
Author
Strumming
There is no strumming pattern for this song yet. and get +5 IQ
Am: x02210
C:  x32010
F:  x33211
Fm: x33011

Lyrics/chords are written for solo, which is different from the song, especially at the 
end, so just keep that in mind.
The switch between F to Fm is basically pulling off the G string for a beat, which I 
think sounds entirely more accurate!


[Intro]
Am    C    F Fm F Fm

[Verse]
Am                              C
  your house that sits behind me
                     F Fm F Fm
is covered in ivy green
Am                              C
  the windows that we watch from
                              F Fm F
are old and chipping at the beam

[Chorus]
             Am
it takes me away
           C
takes me away
           F   Fm   F   Fm
takes me away
             Am
it takes me away
           C
takes me away
           F   Fm   F   Fm
takes me away

[Interlude]
Am       C      F  Fm
ooooh ooohohoohoh
Am       C      F  Fm
ooooh ooohohoohoh

[Verse]
Am                                 C
  the scent you wear moves in lines
                           F Fm F Fm
from your apartment into mine
Am                              C
  you act like you don't know me
                                F Fm F
my god, you tempt my anxious mind

[Chorus]
             Am
it takes me away
          C
takes me away
            F   Fm   F   Fm
takes me away

             Am
it takes me away
          C
takes me away
            F   Fm   F   Fm
takes me away

[Interlude]
Am       C      F      Fm
ooooh ooohohoohoh
Am       C      F      Fm
ooooh ooohohoohoh

[Bridge]
                 Am           C             F      Fm
    F     Fm
Would it be much better if I knew nothing about you
                 Am           C             F      Fm
    F     Fm
Would it be much better if I knew nothing about you
                 Am           C             F      Fm
    F     Fm
Would it be much better if I knew nothing about you
                 Am           C             F      
Fm     F
Would it be much better if I knew nothing about you

Am 
  I'll go, I'll go, I'll go I...
C  
  I'll go, I'll go, I'll go I...
F               Fm 
  I'll go, I'll go, I'll go I...
F               Fm 
  I'll go, I'll go, I'll go I...

Am
  I'll go, I'll go, I'll go I...
C
  I'll go, I'll go, I'll go I...
F               Fm
  I'll go, I'll go, I'll go I...
 F              Fm
  I'll go, I'll go....

[Chorus]
             Am
it takes me away
          C
takes me away
            F Fm F Fm
takes me away

             Am
it takes me away
          C
takes me away
            F Fm F Fm
takes me away

            
            
Suggest correction
Creating personal tab
Creating personal tab
You can edit any tab online and save it as your Personal.

You can edit, replace or remove any tab part or add personal notes – all changes will be seen only by you.

Personal tabs can be accessed anytime from any device, even offline.
Learn more »
comments
print report bad tab
6 comments total. Showing first comments.
+3 reply
jxcalero 10 Jul 29, 2012 04:57 PM

So far you're the only one who's made a tab for this. Thanks for doing a good job with it. :)

+7 reply
KcazFM 16 Sep 13, 2012 07:49 AM

You'll need a capo on the first fret to play in the same key that the song is in. Also, I figured out the main riff (relative to capo):

e|-------------
b|------5------
g|----5----5--- (x2)
D|-7---------7-
A|-------------
E|-------------

e|-------------
b|------8------
g|----5----5---
D|-5---------5- (x2)
A|-------------
E|-------------

e|-------------
b|------8------
g|----5----5--- (alternate this...)
D|-7---------7-
A|-------------
E|-------------

e|-------------
b|------8------
g|----5----5--- (... with this)
D|-5---------5-
A|-------------
E|-------------


But good job on the tab!

0 reply
spaldingt 10 Apr 25, 2016 09:56 AM

an easier way to play that intro riff:
e|--------0--------------0--------------3--------------3--------|
b|-----1-----1--------1-----1--------1-----1--------1-----1-----|
g|--2-----------2--2-----------2--0-----------0--0-----------0--|
d|--------------------------------------------------------------|
a|--------------------------------------------------------------|
E|--------------------------------------------------------------|

e|---------3--------------3--------------3--------------0-------|
b|-----1------1--------1-----1--------1-----1--------1-----1----|
g|------------------0-----------0--2-----------2--0-----------0-| x2
d|--3------------3----------------------------------------------|
a|--------------------------------------------------------------|
E|--------------------------------------------------------------|

guest
You may want to rate the tab now too:
select rating
Wanna post a correction for this tab? Suggest correction