Oops, an error
Loading. Please wait.

1957 intro tab

version 1
version 1

Intro

Whole song

6,946 views 33 this week
3 commentsread comments
1 2 3 4 5
x 10
add to favorites
×
Save as Personal and add changes to this tab that will be seen only by you. Learn more ›
×
You can save this tab as Personal to edit and correct it or add notes. All changes will be seen only by you. Learn more »
launch autoscroll
font size
0
reset
how to read this tab
guitar tuner
edit
Autoscroll
slow
fast
+/-
esc
set tempo
stop
Tab by Andrew Marino


This is for the beginning and other parts of the song where this part comes in. It's
probably my favorite part of the song, and makes the song what it is for me. I had to make
an account, just for it because there is no tab for the part. The song is great, and 
very well written. One of my favorites. As far as guitar, I taught myself so I don't know
every type of chord but you can still get it with the tab shown below:

CAPO: 1st fret

I've listened and played with the tab, and it sounds dead on. Here it is:

  Am
e|--------0--------------0--------------3--------------3--------|
b|-----1-----1--------1-----1--------1-----1--------1-----1-----|
g|--2-----------2--2-----------2--0-----------0--0-----------0--|
d|--------------------------------------------------------------|
a|--------------------------------------------------------------|
E|--------------------------------------------------------------|


e|---------3--------------3--------------3--------------0-------|
b|-----1------1--------1-----1--------1-----1--------1-----1----|
g|------------------0-----------0--2-----------2--0-----------0-|
d|--3------------3----------------------------------------------|
a|--------------------------------------------------------------|
E|--------------------------------------------------------------|

And it repeats like that in the certain parts of the song it's played in. That's really
all you need to know to get it.

            
            
Suggest correction
Creating personal tab
Creating personal tab
You can edit any tab online and save it as your Personal.

You can edit, replace or remove any tab part or add personal notes – all changes will be seen only by you.

Personal tabs can be accessed anytime from any device, even offline.
Learn more »
comments
print report bad tab
3 comments total.
+2 reply
Spud Spudoni 26 Jul 22, 2013 08:16 PM

I've realized after playing the song more, that the tab above needed minor tweaking. Here is how it should be: (On the second half of the tab above)

e|------3--------------3-------
b|----1----1--------1----------
g|------------2--0----------0--
d|--3--------------------------
a|-----------------------------
E|-----------------------------

With the change, the tab is much more accurate to the original song.

0 reply
Spud Spudoni 26 Jul 22, 2013 08:16 PM

I've realized after playing the song more, that the tab above needed minor tweaking. Here is how it should be: (On the second half of the tab above)

e|------3--------------3-------
b|----1----1--------1----------
g|------------2--0----------0--
d|--3--------------------------
a|-----------------------------
E|-----------------------------

With the change, the tab is much more accurate to the original song.

0 reply
Spud Spudoni 26 Jul 22, 2013 08:16 PM

I've realized after playing the song more, that the tab above needed minor tweaking. Here is how it should be: (On the second half of the tab above)

e|------3--------------3-------
b|----1----1--------1----------
g|------------2--0----------0--
d|--3--------------------------
a|-----------------------------
E|-----------------------------

With the change, the tab is much more accurate to the original song.

guest
You may want to rate the tab now too:
select rating
Wanna post a correction for this tab? Suggest correction