Oops, an error
Loading. Please wait.
We have Chord Pro version of Howling At The Moon.
It's the closest thing you can get to the original song and it has interactive parts. Check out the tab »
×
by Milow
11,845 views 39 this week
no commentswrite comment
1 2 3 4 5
x 9
add to favorites
×
Save as Personal and add changes to this tab that will be seen only by you. Learn more ›
×
You can save this tab as Personal to edit and correct it or add notes. All changes will be seen only by you. Learn more »
launch autoscroll
font size
0
reset
transpose
0
reset
simplify chords
display chords
guitar tuner
edit
Autoscroll
slow
fast
+/-
esc
set tempo
stop
Strumming
There is no strumming pattern for this song yet. and get +5 IQ
I play this song on one acoustic guitar.
You can watch it here: https://www.youtube.com/watch?v=r55_RUzEJXs

The whole song is played with 4 chords: C  Em  G  D

 
Intro/Interlude:

  C                            Em
e|-----------0-----0----------|----------------------------|
B|-----1-----1-----1--3-------|--0-----0--x-----0--3--0----|
G|-----0--------------0-------|--0-----0--x-----0----------|
D|----------------------------|----------------------------|
A|-----3----------------------|----------------------------|
E|----------------------------|--0-----0--x-----0----------|

    G                           D    
e|----------------------------|----------------------------|
B|--0-----0--x-----0--3-------|--3-----3--x----------------|
G|--0-----0--x----------------|--2-----2--x-----2--4--2-0--|
D|----------------------------|--0-----0--x--0-------------|
A|----------------------------|----------------------------|
E|--3-----3--x----------------|----------------------------|

It's played in the Intro once and in the interlude twice. But you can play it how do you like.
You can also skip the last notes in the D chord, it's when the vocals start.

In the 'ahoooo' part after the vers I play the C like in into but keep on slapping the guitar.
You can skip that too.


[Intro]

  C                            Em
e|-----------0-----0----------|----------------------------|
B|-----1-----1-----1--3-------|--0-----0--x-----0--3--0----|
G|-----0--------------0-------|--0-----0--x-----0----------|
D|----------------------------|----------------------------|
A|-----3----------------------|----------------------------|
E|----------------------------|--0-----0--x-----0----------|

    G                           D    
e|----------------------------|----------------------------|
B|--0-----0--x-----0--3-------|--3-----3--x----------------|
G|--0-----0--x----------------|--2-----2--x-----2--4--2-0--|
D|----------------------------|--0-----0--x--0-------------|
A|----------------------------|----------------------------|
E|--3-----3--x----------------|----------------------------|


[Verse]

  C
Where did the summer go
   Em
I found it in Monaco
 G
Dancing in Mexico
 D
Sushi in Tokyo
   C
I wanna be where you are
  Em
Drive in a classic car
 G
Cuba is not so far
D
I can bring my guitar


[Interlude]

  C                            Em
e|-----------0-----0----------|----------------------------|
B|-----1-----1-----1--3-------|--0-----0--x-----0--3--0----|
G|-----0--------------0-------|--0-----0--x-----0----------|
D|----------------------------|----------------------------|
A|-----3----------------------|----------------------------|
E|----------------------------|--0-----0--x-----0----------|
                                                                        x2
    G                           D    
e|----------------------------|----------------------------|
B|--0-----0--x-----0--3-------|--3-----3--x----------------|
G|--0-----0--x----------------|--2-----2--x-----2--4--2-0--|
D|----------------------------|--0-----0--x--0-------------|
A|----------------------------|----------------------------|
E|--3-----3--x----------------|----------------------------|


[Chorus]
 
             Cmaj7
Baby are we there yet
                Em
Meet me at the sunset
               G     D
Summer will be over soon
                     Cadd9
I’ll see you when you get there
             Em
But until we get there we’ll be
 G              D
Howling at the moon

             Cmaj7
Baby are we there yet
                Em
Meet me at the sunset
               G     D
Summer will be over soon
                     Cadd9
I’ll see you when you get there
             Em
But until we get there we’ll be
 G              D
Howling at the moon

  C   Em    G              D
Ahoooooo   Howling at the moon
  C   Em    G              D
Ahoooooo   Howling at the moon


[Verse]

  C
Where is the summertime
 Em
Take me back to Hawaii
  G
Skyscrapers in Dubai
 D
Palaces in Versailles
 C
So won't you fly with me
      Em
Have dinner in Sicily
 G
Be who you wanna be
 D
Right where you wanna be


[Interlude]

  C                            Em
e|-----------0-----0----------|----------------------------|
B|-----1-----1-----1--3-------|--0-----0--x-----0--3--0----|
G|-----0--------------0-------|--0-----0--x-----0----------|
D|----------------------------|----------------------------|
A|-----3----------------------|----------------------------|
E|----------------------------|--0-----0--x-----0----------|
                                                                        x2
    G                           D    
e|----------------------------|----------------------------|
B|--0-----0--x-----0--3-------|--3-----3--x----------------|
G|--0-----0--x----------------|--2-----2--x-----2--4--2-0--|
D|----------------------------|--0-----0--x--0-------------|
A|----------------------------|----------------------------|
E|--3-----3--x----------------|----------------------------|


[Chorus] 

              Cmaj7
Baby are we there yet
                Em
Meet me at the sunset
               G     D
Summer will be over soon
                     Cadd9
I’ll see you when you get there
             Em
But until we get there we’ll be
 G              D
Howling at the moon

             Cmaj7
Baby are we there yet
                Em
Meet me at the sunset
               G     D
Summer will be over soon
                     Cadd9
I’ll see you when you get there
             Em
But until we get there we’ll be
 G              D
Howling at the moon

  C   Em    G              D
Ahoooooo   Howling at the moon
  C   Em    G              D
Ahoooooo   Howling at the moon


[Interlude]

  C                            Em
e|-----------0-----0----------|----------------------------|
B|-----1-----1-----1--3-------|--0-----0--x-----0--3--0----|
G|-----0--------------0-------|--0-----0--x-----0----------|
D|----------------------------|----------------------------|
A|-----3----------------------|----------------------------|
E|----------------------------|--0-----0--x-----0----------|
                                                                        x2
    G                           D    
e|----------------------------|----------------------------|
B|--0-----0--x-----0--3-------|--3-----3--x----------------|
G|--0-----0--x----------------|--2-----2--x-----2--4--2-0--|
D|----------------------------|--0-----0--x--0-------------|
A|----------------------------|----------------------------|
E|--3-----3--x----------------|----------------------------|


[End]

G


*******************
|x     Dead note
*******************

            
            
Suggest correction
Creating personal tab
Creating personal tab
You can edit any tab online and save it as your Personal.

You can edit, replace or remove any tab part or add personal notes – all changes will be seen only by you.

Personal tabs can be accessed anytime from any device, even offline.
Learn more »
comments
print report bad tab
guest
You may want to rate the tab now too:
select rating
Wanna post a correction for this tab? Suggest correction