Oops, an error
Loading. Please wait.

Subsonic Words tab

73 views 1 this week
no commentswrite comment
1 2 3 4 5
3 more votes to show rating
add to favorites
×
Save as Personal and add changes to this tab that will be seen only by you. Learn more ›
×
You can save this tab as Personal to edit and correct it or add notes. All changes will be seen only by you. Learn more »
launch autoscroll
font size
0
reset
how to read this tab
guitar tuner
edit
Autoscroll
slow
fast
+/-
esc
set tempo
stop
Author
About this tab version
My version is tabbed in standard tuning, which allows for it to include the bridge of the song. Was this info helpful? Yes No
First tab. Figured out a way to play this in standard tuning, and added the
bridge. I don't know if it's perfect, but it sounds good to me.

[Verse]
    v  v  ^   ^  v  v  ^   ^  v  ^   ^  v  v  ^   ^  v  v  ^   ^  v  ^   ^
e|--x--x--x---x--x--x--x---x--x--x---x--x--x--x---x--x--x--x---x--x--x---x--|
B|--0--0--0---0--0--0--0---0--0--0---0--0--0--0---0--0--0--0---0--0--0---0--|
G|--0--0--0---0--0--0--0---0--0--0---0--0--0--0---0--0--0--0---0--0--0---0--|
D|--2--2--2---2--2--2--2---2--2--2---2--2--2--2---2--2--2--2---2--2--2---2--|
A|--0--0--0---0--0--0--0---0--0--0---0--3--3--3---3--3--3--3---3--3--3---3--|
E|--x--x--x---x--x--x--x---x--x--x---x--3--3--3---3--3--3--3---3--3--3---3--|

[Bridge]
    v  v  ^   ^  v  v  ^   ^  v  ^   ^  v  v  ^   ^  v    v    v    v    ^
e|--0--0--0---0--1--1--1---1--1--1---1--0--0--0---0--0----0----0----0----0--|
B|--0--0--0---0--1--1--1---1--1--1---1--x--x--x---x--1----3----1----0----x--|
G|--0--0--0---0--2--2--2---2--2--2---2--0--0--0---0--0----0----0----0----0--|
D|--2--2--2---2--3--3--3---3--3--3---3--2--2--2---2--2----2----2----2----2--|
A|--2--2--2---2--3--3--3---3--3--3---3--3--3--3---3--3----3----3----3----3--|
E|--0--0--0---0--1--1--1---1--1--1---1--x--x--x---x--x----x----x----x----x--|

************************************

| v  Strum down
| ^  Strum up
| x  Dead note

************************************

[Lyrics]
[Verse]
I'm up in the cosmos
With my eyes closed
I'm down in the meantime
Wondering what time means.
I'm out on the icing
Hovering and buffering
I'm down in the meantime
Living with machines
In this conscious reality.

I'm walking on the sidewalk
Listening to people talk.
I'm swimming in some sea waves
Underneath a freeway.
I'm climbing up on a mountain and then
I'm meeting up with the sun again.
I'm following my mind home
And counting up my chromosomes
Then drowning in sea foam.

Too many trees will make you like a bird just sitting grumbling subsonic words.
Itchy feet will make you want to run away from the concrete and its absorbing the sun.
Stinky people will make you like to leave and retreat to your own stinky air that you breathe.
Geometric shapes will make you have to wait 'til you're old enough to finish your plate
                 [Bridge]
And whatever you wage.

[Verse]
I'm up in the cosmos
With my eyes closed
I'm down in the meantime
Wondering what time means.

I'm out on the icing
Hovering and buffering
I'm down in the meantime
Living with machines
In this conscious reality.

            
            
Suggest correction
Creating personal tab
Creating personal tab
You can edit any tab online and save it as your Personal.

You can edit, replace or remove any tab part or add personal notes – all changes will be seen only by you.

Personal tabs can be accessed anytime from any device, even offline.
Learn more »
Give kudos to tab author, rate the tab!
1 2 3 4 5
comments
print report bad tab
guest
You may want to rate the tab now too:
select rating
Wanna post a correction for this tab? Suggest correction