Oops, an error
Loading. Please wait.

This Is Why Im Hot tab

by Mims
4,917 views 3 this week
6 commentsread comments
1 2 3 4 5
1 last vote to show rating
add to favorites
×
Save as Personal and add changes to this tab that will be seen only by you. Learn more ›
×
You can save this tab as Personal to edit and correct it or add notes. All changes will be seen only by you. Learn more »
launch autoscroll
font size
0
reset
how to read this tab
guitar tuner
edit
Autoscroll
slow
fast
+/-
esc
set tempo
stop
Author
this is how i play it

e|------------------------------------------------------------------------|
B|------------------------------------------------------------------------|
G|-------------------13-13-13---------------14--14--14--14--14--14--14----|
D|------11--11--11--------------14--14--13--------------------------------|
A|------------------------------------------------------------------------|
E|------------------------------------------------------------------------|

This is my first tab dont be too harsh
This is M.I.M.S. This Is Why I'm Hot


Bass sounds good if you just play each note once
like this 

G|-----------13-----------14-------|
D|------11--------14--13-----------|
A|---------------------------------|
E|---------------------------------|


            
            
Suggest correction
Creating personal tab
Creating personal tab
You can edit any tab online and save it as your Personal.

You can edit, replace or remove any tab part or add personal notes – all changes will be seen only by you.

Personal tabs can be accessed anytime from any device, even offline.
Learn more »
Give kudos to tab author, rate the tab!
1 2 3 4 5
comments
print report bad tab
6 comments total. Showing first comments.
0 reply
reilly91 70 May 11, 2007 04:18 PM

Sounds good. I play it a little different. This is how to play it at the same exact pitch of the song in standard tuning:

Fade out
e|------------------------------------------------------------|
B|------------------------------------------------------------|
G|--4-4-4----11-11-11----7-7-6---12-12-12-12...---------------|
D|------------------------------------------------------------|
A|------------------------------------------------------------|
E|------------------------------------------------------------|

I can't wait til someone submits a tab for the remix "This is why I rock".

-1 reply
dale-banez 40 Jun 08, 2007 12:01 PM

how do you people listen to this crap? do any of you actually know what the shiz this "mims" idiot is talking about? cause I don't even think he does. I can't even believe there's a TAB for it. what the music industry needs is TALENT, not some moron saying random thoughts that pop into his brainless skull.

0 reply
dale-banez 40 Jun 08, 2007 12:03 PM

and who makes their rap name Mims? it sounds like something you would name your pet gebil

guest
You may want to rate the tab now too:
select rating
Wanna post a correction for this tab? Suggest correction