Oops, an error
Loading. Please wait.

Tintarella Di Luna Bass Tab

by Mina
1,591 views 1 this week
no commentswrite comment
1 2 3 4 5
2 more votes to show rating
add to favorites
launch autoscroll
font size
0
reset
guitar tuner
Autoscroll
slow
fast
+/-
esc
set tempo
stop
Help us to improve Ultimate-Guitar.com Take our survey!
×
Author
Difficulty
intermediate
     
   [intro]
                           Bb
                        |---------------|
 a piano riff,then this |-----------5---| again a piano riff, 
                        |---5-5-8-8---8-|    then play the rest
                        |6--------------|

   [verce] x2
   F                     Bb                   F
 g|---------------|    |---------------|    |---------------|
 d|-----------0---|    |-----------5---|    |-----------0---|
 a|---0-0-3-3---3-| x4 |---5-5-8-8---8-| x2 |---0-0-3-3---3-| x2 
 e|1--------------|    |6--------------|    |1--------------|
   C               Bb               F               
 g|---------------|---------------|---------------|---------------|
 d|------------7--|-----------5---|-----------0---|---------------|
 a|---7-7-10-10-10|---5-5-8-8---8-|---0-0-3-3---3-|---------------|
 e|8--------------|6--------------|1--------------|1--------------|

   [chorus]
   D       A             D       G               C
 g|----------------|    |----------------------------|
 d|----3---2-------|    |--------5-------5-----------|
 a|5-----------3---| x2 |5---3-------5-------5---3---|
 e|----------------|    |----------------------------|

   [verce/solo] x3
   F                     Bb                   F
 g|---------------|    |---------------|    |---------------|
 d|-----------0---|    |-----------5---|    |-----------0---|
 a|---0-0-3-3---3-| x4 |---5-5-8-8---8-| x2 |---0-0-3-3---3-| x2 
 e|1--------------|    |6--------------|    |1--------------|
   C               Bb               F              F __1+2________ 
 g|---------------|---------------|---------------|---------------|
 d|------------7--|-----------5---|-----------0---|---3-3-3-3-3-3-|
 a|---7-7-10-10-10|---5-5-8-8---8-|---0-0-3-3---3-|---------------|
 e|8--------------|6--------------|1--------------|1--------------|

   F __3__________
 g|---------------|
 d|-----------3---|
 a|---------------|
 e|1--------------|

   [chorus] 
   D       A             D       G               C
 g|----------------|    |----------------------------|
 d|----3---2-------|    |--------5-------5-----------|
 a|5-----------3---| x2 |5---3-------5-------5---3---|
 e|----------------|    |----------------------------|
  
   [verce] x2
   F                     Bb                   F
 g|---------------|    |---------------|    |---------------|
 d|-----------0---|    |-----------5---|    |-----------0---|
 a|---0-0-3-3---3-| x4 |---5-5-8-8---8-| x2 |---0-0-3-3---3-| x2 
 e|1--------------|    |6--------------|    |1--------------|
   C               Bb               F              F 
 g|---------------|---------------|---------------|---------------|
 d|------------7--|-----------5---|-----------0---|-----------0---|
 a|---7-7-10-10-10|---5-5-8-8---8-|---0-0-3-3---3-|---0-0-3-3---3-|
 e|8--------------|6--------------|1--------------|1--------------|

   C               Bb               F              F 
 g|---------------|---------------|---------------|---------------|
 d|------------7--|-----------5---|-----------0---|-----------0---|
 a|---7-7-10-10-10|---5-5-8-8---8-|---0-0-3-3---3-|---0-0-3-3---3-|
 e|8--------------|6--------------|1--------------|1--------------|

   C               Bb               F              F 
 g|---------------|---------------|---------------|---------------|
 d|------------7--|-----------5---|-----------0---|---------------|
 a|---7-7-10-10-10|---5-5-8-8---8-|---0-0-3-3---3-|---------------|
 e|8--------------|6--------------|1--------------|1----1---------|

  [this is all , corect me if i'm wrong , modigas_19@yahoo.com]

Suggest correction
Give kudos to tab author, rate the tab!
1 2 3 4 5
comments
print report bad tab
guest
You may want to rate the tab now too:
select rating
Wanna post a correction for this tab? Suggest correction